  0
SECTION
  2
HEADER
  9
$ACADVER
  1
AC1027
  9
$ACADMAINTVER
 70
     8
  9
$DWGCODEPAGE
  3
ANSI_1252
  9
$LASTSAVEDBY
  1
giammy
  9
$REQUIREDVERSIONS
160
                 0
  9
$INSBASE
 10
0.0
 20
0.0
 30
0.0
  9
$EXTMIN
 10
20.74454230577118
 20
8.79509376750363
 30
0.0
  9
$EXTMAX
 10
21.10454230577099
 20
9.700093767501456
 30
0.0
  9
$LIMMIN
 10
0.0
 20
0.0
  9
$LIMMAX
 10
12.0
 20
9.0
  9
$ORTHOMODE
 70
     1
  9
$REGENMODE
 70
     1
  9
$FILLMODE
 70
     1
  9
$QTEXTMODE
 70
     0
  9
$MIRRTEXT
 70
     0
  9
$LTSCALE
 40
1.0
  9
$ATTMODE
 70
     1
  9
$TEXTSIZE
 40
0.2
  9
$TRACEWID
 40
0.05
  9
$TEXTSTYLE
  7
Standard
  9
$CLAYER
  8
0
  9
$CELTYPE
  6
ByLayer
  9
$CECOLOR
 62
   256
  9
$CELTSCALE
 40
1.0
  9
$DISPSILH
 70
     0
  9
$DIMSCALE
 40
1.0
  9
$DIMASZ
 40
0.18
  9
$DIMEXO
 40
0.0625
  9
$DIMDLI
 40
0.38
  9
$DIMRND
 40
0.0
  9
$DIMDLE
 40
0.0
  9
$DIMEXE
 40
0.18
  9
$DIMTP
 40
0.0
  9
$DIMTM
 40
0.0
  9
$DIMTXT
 40
0.18
  9
$DIMCEN
 40
0.09
  9
$DIMTSZ
 40
0.0
  9
$DIMTOL
 70
     0
  9
$DIMLIM
 70
     0
  9
$DIMTIH
 70
     1
  9
$DIMTOH
 70
     1
  9
$DIMSE1
 70
     0
  9
$DIMSE2
 70
     0
  9
$DIMTAD
 70
     0
  9
$DIMZIN
 70
     0
  9
$DIMBLK
  1

  9
$DIMASO
 70
     1
  9
$DIMSHO
 70
     1
  9
$DIMPOST
  1

  9
$DIMAPOST
  1

  9
$DIMALT
 70
     0
  9
$DIMALTD
 70
     2
  9
$DIMALTF
 40
25.4
  9
$DIMLFAC
 40
1.0
  9
$DIMTOFL
 70
     0
  9
$DIMTVP
 40
0.0
  9
$DIMTIX
 70
     0
  9
$DIMSOXD
 70
     0
  9
$DIMSAH
 70
     0
  9
$DIMBLK1
  1

  9
$DIMBLK2
  1

  9
$DIMSTYLE
  2
Standard
  9
$DIMCLRD
 70
     0
  9
$DIMCLRE
 70
     0
  9
$DIMCLRT
 70
     0
  9
$DIMTFAC
 40
1.0
  9
$DIMGAP
 40
0.09
  9
$DIMJUST
 70
     0
  9
$DIMSD1
 70
     0
  9
$DIMSD2
 70
     0
  9
$DIMTOLJ
 70
     1
  9
$DIMTZIN
 70
     0
  9
$DIMALTZ
 70
     0
  9
$DIMALTTZ
 70
     0
  9
$DIMUPT
 70
     0
  9
$DIMDEC
 70
     4
  9
$DIMTDEC
 70
     4
  9
$DIMALTU
 70
     2
  9
$DIMALTTD
 70
     2
  9
$DIMTXSTY
  7
Standard
  9
$DIMAUNIT
 70
     0
  9
$DIMADEC
 70
     0
  9
$DIMALTRND
 40
0.0
  9
$DIMAZIN
 70
     0
  9
$DIMDSEP
 70
    46
  9
$DIMATFIT
 70
     3
  9
$DIMFRAC
 70
     0
  9
$DIMLDRBLK
  1

  9
$DIMLUNIT
 70
     2
  9
$DIMLWD
 70
    -2
  9
$DIMLWE
 70
    -2
  9
$DIMTMOVE
 70
     0
  9
$DIMFXL
 40
1.0
  9
$DIMFXLON
 70
     0
  9
$DIMJOGANG
 40
0.7853981633974483
  9
$DIMTFILL
 70
     0
  9
$DIMTFILLCLR
 70
     0
  9
$DIMARCSYM
 70
     0
  9
$DIMLTYPE
  6

  9
$DIMLTEX1
  6

  9
$DIMLTEX2
  6

  9
$DIMTXTDIRECTION
 70
     0
  9
$LUNITS
 70
     2
  9
$LUPREC
 70
     4
  9
$SKETCHINC
 40
0.1
  9
$FILLETRAD
 40
0.0
  9
$AUNITS
 70
     0
  9
$AUPREC
 70
     0
  9
$MENU
  1
.
  9
$ELEVATION
 40
0.0
  9
$PELEVATION
 40
0.0
  9
$THICKNESS
 40
0.0
  9
$LIMCHECK
 70
     0
  9
$CHAMFERA
 40
0.0
  9
$CHAMFERB
 40
0.0
  9
$CHAMFERC
 40
0.0
  9
$CHAMFERD
 40
0.0
  9
$SKPOLY
 70
     0
  9
$TDCREATE
 40
2457728.597986053
  9
$TDUCREATE
 40
2457728.556319387
  9
$TDUPDATE
 40
2457729.433980764
  9
$TDUUPDATE
 40
2457729.392314097
  9
$TDINDWG
 40
0.0028439468
  9
$TDUSRTIMER
 40
0.0028422569
  9
$USRTIMER
 70
     1
  9
$ANGBASE
 50
0.0
  9
$ANGDIR
 70
     0
  9
$PDMODE
 70
     0
  9
$PDSIZE
 40
0.0
  9
$PLINEWID
 40
0.0
  9
$SPLFRAME
 70
     0
  9
$SPLINETYPE
 70
     6
  9
$SPLINESEGS
 70
     8
  9
$HANDSEED
  5
505
  9
$SURFTAB1
 70
     6
  9
$SURFTAB2
 70
     6
  9
$SURFTYPE
 70
     6
  9
$SURFU
 70
     6
  9
$SURFV
 70
     6
  9
$UCSBASE
  2

  9
$UCSNAME
  2

  9
$UCSORG
 10
0.0
 20
0.0
 30
0.0
  9
$UCSXDIR
 10
1.0
 20
0.0
 30
0.0
  9
$UCSYDIR
 10
0.0
 20
1.0
 30
0.0
  9
$UCSORTHOREF
  2

  9
$UCSORTHOVIEW
 70
     0
  9
$UCSORGTOP
 10
0.0
 20
0.0
 30
0.0
  9
$UCSORGBOTTOM
 10
0.0
 20
0.0
 30
0.0
  9
$UCSORGLEFT
 10
0.0
 20
0.0
 30
0.0
  9
$UCSORGRIGHT
 10
0.0
 20
0.0
 30
0.0
  9
$UCSORGFRONT
 10
0.0
 20
0.0
 30
0.0
  9
$UCSORGBACK
 10
0.0
 20
0.0
 30
0.0
  9
$PUCSBASE
  2

  9
$PUCSNAME
  2

  9
$PUCSORG
 10
0.0
 20
0.0
 30
0.0
  9
$PUCSXDIR
 10
1.0
 20
0.0
 30
0.0
  9
$PUCSYDIR
 10
0.0
 20
1.0
 30
0.0
  9
$PUCSORTHOREF
  2

  9
$PUCSORTHOVIEW
 70
     0
  9
$PUCSORGTOP
 10
0.0
 20
0.0
 30
0.0
  9
$PUCSORGBOTTOM
 10
0.0
 20
0.0
 30
0.0
  9
$PUCSORGLEFT
 10
0.0
 20
0.0
 30
0.0
  9
$PUCSORGRIGHT
 10
0.0
 20
0.0
 30
0.0
  9
$PUCSORGFRONT
 10
0.0
 20
0.0
 30
0.0
  9
$PUCSORGBACK
 10
0.0
 20
0.0
 30
0.0
  9
$USERI1
 70
     0
  9
$USERI2
 70
     0
  9
$USERI3
 70
     0
  9
$USERI4
 70
     0
  9
$USERI5
 70
     0
  9
$USERR1
 40
0.0
  9
$USERR2
 40
0.0
  9
$USERR3
 40
0.0
  9
$USERR4
 40
0.0
  9
$USERR5
 40
0.0
  9
$WORLDVIEW
 70
     1
  9
$SHADEDGE
 70
     3
  9
$SHADEDIF
 70
    70
  9
$TILEMODE
 70
     1
  9
$MAXACTVP
 70
    64
  9
$PINSBASE
 10
0.0
 20
0.0
 30
0.0
  9
$PLIMCHECK
 70
     0
  9
$PEXTMIN
 10
0.0
 20
0.0
 30
0.0
  9
$PEXTMAX
 10
0.0
 20
0.0
 30
0.0
  9
$PLIMMIN
 10
0.0
 20
0.0
  9
$PLIMMAX
 10
12.0
 20
9.0
  9
$UNITMODE
 70
     0
  9
$VISRETAIN
 70
     1
  9
$PLINEGEN
 70
     0
  9
$PSLTSCALE
 70
     1
  9
$TREEDEPTH
 70
  3020
  9
$CMLSTYLE
  2
Standard
  9
$CMLJUST
 70
     0
  9
$CMLSCALE
 40
1.0
  9
$PROXYGRAPHICS
 70
     1
  9
$MEASUREMENT
 70
     0
  9
$CELWEIGHT
370
    -1
  9
$ENDCAPS
280
     0
  9
$JOINSTYLE
280
     0
  9
$LWDISPLAY
290
     0
  9
$INSUNITS
 70
     1
  9
$HYPERLINKBASE
  1

  9
$STYLESHEET
  1

  9
$XEDIT
290
     1
  9
$CEPSNTYPE
380
     0
  9
$PSTYLEMODE
290
     1
  9
$FINGERPRINTGUID
  2
{C99E62BF-1D68-4824-8196-2F5636FE611E}
  9
$VERSIONGUID
  2
{2726EC9B-D384-4DF2-A653-E129E320626C}
  9
$EXTNAMES
290
     1
  9
$PSVPSCALE
 40
0.0
  9
$OLESTARTUP
290
     0
  9
$SORTENTS
280
   127
  9
$INDEXCTL
280
     0
  9
$HIDETEXT
280
     1
  9
$XCLIPFRAME
280
     2
  9
$HALOGAP
280
     0
  9
$OBSCOLOR
 70
   257
  9
$OBSLTYPE
280
     0
  9
$INTERSECTIONDISPLAY
280
     0
  9
$INTERSECTIONCOLOR
 70
   257
  9
$DIMASSOC
280
     2
  9
$PROJECTNAME
  1

  9
$CAMERADISPLAY
290
     0
  9
$LENSLENGTH
 40
50.0
  9
$CAMERAHEIGHT
 40
0.0
  9
$STEPSPERSEC
 40
2.0
  9
$STEPSIZE
 40
6.0
  9
$3DDWFPREC
 40
2.0
  9
$PSOLWIDTH
 40
0.25
  9
$PSOLHEIGHT
 40
4.0
  9
$LOFTANG1
 40
1.570796326794896
  9
$LOFTANG2
 40
1.570796326794896
  9
$LOFTMAG1
 40
0.0
  9
$LOFTMAG2
 40
0.0
  9
$LOFTPARAM
 70
     7
  9
$LOFTNORMALS
280
     1
  9
$LATITUDE
 40
37.795
  9
$LONGITUDE
 40
-122.394
  9
$NORTHDIRECTION
 40
0.0
  9
$TIMEZONE
 70
 -8000
  9
$LIGHTGLYPHDISPLAY
280
     1
  9
$TILEMODELIGHTSYNCH
280
     1
  9
$CMATERIAL
347
96
  9
$SOLIDHIST
280
     0
  9
$SHOWHIST
280
     1
  9
$DWFFRAME
280
     2
  9
$DGNFRAME
280
     0
  9
$REALWORLDSCALE
290
     1
  9
$INTERFERECOLOR
 62
     1
  9
$INTERFEREOBJVS
345
A3
  9
$INTERFEREVPVS
346
A0
  9
$CSHADOW
280
     0
  9
$SHADOWPLANELOCATION
 40
0.0
  0
ENDSEC
  0
SECTION
  2
CLASSES
  0
CLASS
  1
ACDBDICTIONARYWDFLT
  2
AcDbDictionaryWithDefault
  3
ObjectDBX Classes
 90
        0
 91
        1
280
     0
281
     0
  0
CLASS
  1
DICTIONARYVAR
  2
AcDbDictionaryVar
  3
ObjectDBX Classes
 90
        0
 91
        9
280
     0
281
     0
  0
CLASS
  1
TABLESTYLE
  2
AcDbTableStyle
  3
ObjectDBX Classes
 90
     4095
 91
        1
280
     0
281
     0
  0
CLASS
  1
MATERIAL
  2
AcDbMaterial
  3
ObjectDBX Classes
 90
     1153
 91
        3
280
     0
281
     0
  0
CLASS
  1
VISUALSTYLE
  2
AcDbVisualStyle
  3
ObjectDBX Classes
 90
     4095
 91
       24
280
     0
281
     0
  0
CLASS
  1
SCALE
  2
AcDbScale
  3
ObjectDBX Classes
 90
     1153
 91
       33
280
     0
281
     0
  0
CLASS
  1
MLEADERSTYLE
  2
AcDbMLeaderStyle
  3
ACDB_MLEADERSTYLE_CLASS
 90
     4095
 91
        2
280
     0
281
     0
  0
CLASS
  1
CELLSTYLEMAP
  2
AcDbCellStyleMap
  3
ObjectDBX Classes
 90
     1152
 91
        2
280
     0
281
     0
  0
CLASS
  1
EXACXREFPANELOBJECT
  2
ExAcXREFPanelObject
  3
EXAC_ESW
 90
     1025
 91
        0
280
     0
281
     0
  0
CLASS
  1
NPOCOLLECTION
  2
AcDbImpNonPersistentObjectsCollection
  3
ObjectDBX Classes
 90
     1153
 91
        0
280
     0
281
     0
  0
CLASS
  1
LAYER_INDEX
  2
AcDbLayerIndex
  3
ObjectDBX Classes
 90
        0
 91
        0
280
     0
281
     0
  0
CLASS
  1
SPATIAL_INDEX
  2
AcDbSpatialIndex
  3
ObjectDBX Classes
 90
        0
 91
        0
280
     0
281
     0
  0
CLASS
  1
IDBUFFER
  2
AcDbIdBuffer
  3
ObjectDBX Classes
 90
        0
 91
        0
280
     0
281
     0
  0
CLASS
  1
ACDBSECTIONVIEWSTYLE
  2
AcDbSectionViewStyle
  3
ObjectDBX Classes
 90
     1025
 91
        1
280
     0
281
     0
  0
CLASS
  1
ACDBDETAILVIEWSTYLE
  2
AcDbDetailViewStyle
  3
ObjectDBX Classes
 90
     1025
 91
        1
280
     0
281
     0
  0
CLASS
  1
SORTENTSTABLE
  2
AcDbSortentsTable
  3
ObjectDBX Classes
 90
        0
 91
        0
280
     0
281
     0
  0
ENDSEC
  0
SECTION
  2
TABLES
  0
TABLE
  2
VPORT
  5
8
330
0
100
AcDbSymbolTable
 70
     1
  0
VPORT
  5
94
330
8
100
AcDbSymbolTableRecord
100
AcDbViewportTableRecord
  2
*Active
 70
     0
 10
0.0
 20
0.0
 11
1.0
 21
1.0
 12
20.77202407512979
 22
9.241646272681865
 13
0.0
 23
0.0
 14
0.5
 24
0.5
 15
0.5
 25
0.5
 16
0.0
 26
0.0
 36
1.0
 17
0.0
 27
0.0
 37
0.0
 40
1.353149799823022
 41
2.596078431372549
 42
50.0
 43
0.0
 44
0.0
 50
0.0
 51
0.0
 71
     0
 72
  1000
 73
     1
 74
     3
 75
     0
 76
     1
 77
     0
 78
     0
281
     0
 65
     1
110
0.0
120
0.0
130
0.0
111
1.0
121
0.0
131
0.0
112
0.0
122
1.0
132
0.0
 79
     0
146
0.0
348
9F
 60
     3
 61
     5
292
     1
282
     1
141
0.0
142
0.0
 63
   250
421
  3355443
1001
ACAD_NAV_VCDISPLAY
1070
     3
  0
ENDTAB
  0
TABLE
  2
LTYPE
  5
5
330
0
100
AcDbSymbolTable
 70
     3
  0
LTYPE
  5
14
330
5
100
AcDbSymbolTableRecord
100
AcDbLinetypeTableRecord
  2
ByBlock
 70
     0
  3

 72
    65
 73
     0
 40
0.0
  0
LTYPE
  5
15
330
5
100
AcDbSymbolTableRecord
100
AcDbLinetypeTableRecord
  2
ByLayer
 70
     0
  3

 72
    65
 73
     0
 40
0.0
  0
LTYPE
  5
16
330
5
100
AcDbSymbolTableRecord
100
AcDbLinetypeTableRecord
  2
Continuous
 70
     0
  3
Solid line
 72
    65
 73
     0
 40
0.0
  0
LTYPE
  5
1A9
330
5
100
AcDbSymbolTableRecord
100
AcDbLinetypeTableRecord
  2
PHANTOM2
 70
     0
  3
Phantom (.5x) ___ _ _ ___ _ _ ___ _ _ ___ _ _
 72
    65
 73
     6
 40
1.25
 49
0.625
 74
     0
 49
-0.125
 74
     0
 49
0.125
 74
     0
 49
-0.125
 74
     0
 49
0.125
 74
     0
 49
-0.125
 74
     0
  0
ENDTAB
  0
TABLE
  2
LAYER
  5
2
102
{ACAD_XDICTIONARY
360
18E
102
}
330
0
100
AcDbSymbolTable
 70
    12
  0
LAYER
  5
10
102
{ACAD_XDICTIONARY
360
E6
102
}
330
2
100
AcDbSymbolTableRecord
100
AcDbLayerTableRecord
  2
0
 70
     0
 62
     7
  6
Continuous
370
    -3
390
F
347
98
348
0
  0
LAYER
  5
1BF
102
{ACAD_XDICTIONARY
360
1C0
102
}
330
2
100
AcDbSymbolTableRecord
100
AcDbLayerTableRecord
  2
000_CIANO_Num_Penna__171
 70
     0
 62
   140
  6
Continuous
370
     0
390
F
347
98
348
0
  0
LAYER
  5
1C1
102
{ACAD_XDICTIONARY
360
1C2
102
}
330
2
100
AcDbSymbolTableRecord
100
AcDbLayerTableRecord
  2
000_CELESTE_Num_Penna__95
 70
     0
 62
     8
  6
Continuous
370
     0
390
F
347
98
348
0
  0
LAYER
  5
1C3
102
{ACAD_XDICTIONARY
360
1C4
102
}
330
2
100
AcDbSymbolTableRecord
100
AcDbLayerTableRecord
  2
000_CIANO_Num_Penna__41
 70
     0
 62
   118
  6
Continuous
370
     0
390
F
347
98
348
0
  0
LAYER
  5
1C5
102
{ACAD_XDICTIONARY
360
1C6
102
}
330
2
100
AcDbSymbolTableRecord
100
AcDbLayerTableRecord
  2
000_CELESTE_Num_Penna__92
 70
     0
 62
   254
  6
Continuous
370
     0
390
F
347
98
348
0
  0
LAYER
  5
1C7
102
{ACAD_XDICTIONARY
360
1C8
102
}
330
2
100
AcDbSymbolTableRecord
100
AcDbLayerTableRecord
  2
0_Num_Penna__50
 70
     0
 62
   254
  6
Continuous
370
     0
390
F
347
98
348
0
  0
LAYER
  5
1C9
102
{ACAD_XDICTIONARY
360
1CA
102
}
330
2
100
AcDbSymbolTableRecord
100
AcDbLayerTableRecord
  2
Visibile (ISO)_Num_Penna__1
 70
     0
 62
   250
  6
Continuous
370
     0
390
F
347
98
348
0
  0
LAYER
  5
1CB
102
{ACAD_XDICTIONARY
360
1CC
102
}
330
2
100
AcDbSymbolTableRecord
100
AcDbLayerTableRecord
  2
Visibile (ISO)_Num_Penna__41
 70
     0
 62
   118
  6
Continuous
370
     0
390
F
347
98
348
0
  0
LAYER
  5
1CD
102
{ACAD_XDICTIONARY
360
1CE
102
}
330
2
100
AcDbSymbolTableRecord
100
AcDbLayerTableRecord
  2
Visibile (ISO)_Num_Penna__171
 70
     0
 62
   140
  6
Continuous
370
     0
390
F
347
98
348
0
  0
LAYER
  5
1CF
102
{ACAD_XDICTIONARY
360
1D0
102
}
330
2
100
AcDbSymbolTableRecord
100
AcDbLayerTableRecord
  2
Annotazioni - Testi_Num_Penna__171
 70
     0
 62
   140
  6
Continuous
370
     0
390
F
347
98
348
0
  0
LAYER
  5
1D1
102
{ACAD_XDICTIONARY
360
1D2
102
}
330
2
100
AcDbSymbolTableRecord
100
AcDbLayerTableRecord
  2
Annotazioni - Testi_Num_Penna__41
 70
     0
 62
   118
  6
Continuous
370
     0
390
F
347
98
348
0
  0
LAYER
  5
1D3
102
{ACAD_XDICTIONARY
360
1D4
102
}
330
2
100
AcDbSymbolTableRecord
100
AcDbLayerTableRecord
  2
000_CELESTE_Num_Penna__91
 70
     0
 62
   255
  6
Continuous
370
     0
390
F
347
98
348
0
  0
ENDTAB
  0
TABLE
  2
STYLE
  5
3
330
0
100
AcDbSymbolTable
 70
     5
  0
STYLE
  5
11
330
3
100
AcDbSymbolTableRecord
100
AcDbTextStyleTableRecord
  2
Standard
 70
     0
 40
0.0
 41
1.0
 50
0.0
 71
     0
 42
0.2
  3
arial.ttf
  4

1001
ACAD
1000
Arial
1071
       34
  0
STYLE
  5
DC
330
3
100
AcDbSymbolTableRecord
100
AcDbTextStyleTableRecord
  2
Annotativa
 70
     0
 40
0.0
 41
1.0
 50
0.0
 71
     0
 42
0.2
  3
arial.ttf
  4

1001
AcadAnnotative
1000
AnnotativeData
1002
{
1070
     1
1070
     1
1002
}
1001
ACAD
1000
Arial
1071
       34
  0
STYLE
  5
1D5
330
3
100
AcDbSymbolTableRecord
100
AcDbTextStyleTableRecord
  2
GENERATED_STYLE_1
 70
     0
 40
0.0
 41
1.0
 50
0.0
 71
     0
 42
0.2
  3
arialbd.ttf
  4

1001
ACAD
1000
Arial
1071
 33554466
  0
STYLE
  5
1D6
330
3
100
AcDbSymbolTableRecord
100
AcDbTextStyleTableRecord
  2
GENERATED_STYLE_2
 70
     0
 40
0.0
 41
1.0
 50
0.0
 71
     0
 42
0.2
  3
arial.ttf
  4

1001
ACAD
1000
Arial
1071
       34
  0
STYLE
  5
1D7
330
3
100
AcDbSymbolTableRecord
100
AcDbTextStyleTableRecord
  2
GENERATED_STYLE_3
 70
     0
 40
0.0
 41
1.0
 50
0.0
 71
     0
 42
0.2
  3
arialbd.ttf
  4

1001
ACAD
1000
Arial
1071
 33554466
  0
ENDTAB
  0
TABLE
  2
VIEW
  5
6
330
0
100
AcDbSymbolTable
 70
     0
  0
ENDTAB
  0
TABLE
  2
UCS
  5
7
330
0
100
AcDbSymbolTable
 70
     0
  0
ENDTAB
  0
TABLE
  2
APPID
  5
9
330
0
100
AcDbSymbolTable
 70
    10
  0
APPID
  5
12
330
9
100
AcDbSymbolTableRecord
100
AcDbRegAppTableRecord
  2
ACAD
 70
     0
  0
APPID
  5
DD
330
9
100
AcDbSymbolTableRecord
100
AcDbRegAppTableRecord
  2
AcadAnnoPO
 70
     0
  0
APPID
  5
DE
330
9
100
AcDbSymbolTableRecord
100
AcDbRegAppTableRecord
  2
AcadAnnotative
 70
     0
  0
APPID
  5
DF
330
9
100
AcDbSymbolTableRecord
100
AcDbRegAppTableRecord
  2
ACAD_DSTYLE_DIMJAG
 70
     0
  0
APPID
  5
E0
330
9
100
AcDbSymbolTableRecord
100
AcDbRegAppTableRecord
  2
ACAD_DSTYLE_DIMTALN
 70
     0
  0
APPID
  5
107
330
9
100
AcDbSymbolTableRecord
100
AcDbRegAppTableRecord
  2
ACAD_MLEADERVER
 70
     0
  0
APPID
  5
1A6
330
9
100
AcDbSymbolTableRecord
100
AcDbRegAppTableRecord
  2
ACAD_NAV_VCDISPLAY
 70
     0
  0
APPID
  5
1D8
330
9
100
AcDbSymbolTableRecord
100
AcDbRegAppTableRecord
  2
GradientColor1ACI
 70
     0
  0
APPID
  5
1D9
330
9
100
AcDbSymbolTableRecord
100
AcDbRegAppTableRecord
  2
GradientColor2ACI
 70
     0
  0
APPID
  5
4F3
330
9
100
AcDbSymbolTableRecord
100
AcDbRegAppTableRecord
  2
ACAD_EXEMPT_FROM_CAD_STANDARDS
 70
     0
  0
ENDTAB
  0
TABLE
  2
DIMSTYLE
  5
A
330
0
100
AcDbSymbolTable
 70
     2
100
AcDbDimStyleTable
 71
     2
340
27
340
E1
  0
DIMSTYLE
105
27
330
A
100
AcDbSymbolTableRecord
100
AcDbDimStyleTableRecord
  2
Standard
 70
     0
340
11
  0
DIMSTYLE
105
E1
330
A
100
AcDbSymbolTableRecord
100
AcDbDimStyleTableRecord
  2
Annotativa
 70
     0
 40
0.0
340
11
1001
AcadAnnotative
1000
AnnotativeData
1002
{
1070
     1
1070
     1
1002
}
1001
ACAD_DSTYLE_DIMJAG
1070
   388
1040
1.5
1001
ACAD_DSTYLE_DIMTALN
1070
   392
1070
     0
  0
ENDTAB
  0
TABLE
  2
BLOCK_RECORD
  5
1
330
0
100
AcDbSymbolTable
 70
     1
  0
BLOCK_RECORD
  5
1F
102
{ACAD_XDICTIONARY
360
15D
102
}
330
1
100
AcDbSymbolTableRecord
100
AcDbBlockTableRecord
  2
*Model_Space
340
22
 70
     0
280
     1
281
     0
  0
BLOCK_RECORD
  5
58
330
1
100
AcDbSymbolTableRecord
100
AcDbBlockTableRecord
  2
*Paper_Space
340
59
 70
     0
280
     1
281
     0
  0
BLOCK_RECORD
  5
5D
330
1
100
AcDbSymbolTableRecord
100
AcDbBlockTableRecord
  2
*Paper_Space0
340
5E
 70
     0
280
     1
281
     0
  0
ENDTAB
  0
ENDSEC
  0
SECTION
  2
BLOCKS
  0
BLOCK
  5
20
330
1F
100
AcDbEntity
  8
0
100
AcDbBlockBegin
  2
*Model_Space
 70
     0
 10
0.0
 20
0.0
 30
0.0
  3
*Model_Space
  1

  0
ENDBLK
  5
21
330
1F
100
AcDbEntity
  8
0
100
AcDbBlockEnd
  0
BLOCK
  5
5A
330
58
100
AcDbEntity
 67
     1
  8
0
100
AcDbBlockBegin
  2
*Paper_Space
 70
     0
 10
0.0
 20
0.0
 30
0.0
  3
*Paper_Space
  1

  0
ENDBLK
  5
5B
330
58
100
AcDbEntity
 67
     1
  8
0
100
AcDbBlockEnd
  0
BLOCK
  5
5F
330
5D
100
AcDbEntity
 67
     1
  8
0
100
AcDbBlockBegin
  2
*Paper_Space0
 70
     0
 10
0.0
 20
0.0
 30
0.0
  3
*Paper_Space0
  1

  0
ENDBLK
  5
60
330
5D
100
AcDbEntity
 67
     1
  8
0
100
AcDbBlockEnd
  0
ENDSEC
  0
SECTION
  2
ENTITIES
  0
LINE
  5
36B
330
1F
100
AcDbEntity
  8
Visibile (ISO)_Num_Penna__1
  6
Continuous
100
AcDbLine
 10
21.10454230577099
 20
9.590093767501032
 30
0.0
 11
21.10454230577099
 21
9.58009376750104
 31
0.0
  0
LINE
  5
36C
330
1F
100
AcDbEntity
  8
Visibile (ISO)_Num_Penna__1
  6
Continuous
100
AcDbLine
 10
21.10454230577099
 20
9.480093767501132
 30
0.0
 11
21.10454230577099
 21
9.470093767501154
 31
0.0
  0
LINE
  5
36D
330
1F
100
AcDbEntity
  8
Visibile (ISO)_Num_Penna__1
  6
Continuous
100
AcDbLine
 10
21.10454230577099
 20
8.920093767502322
 30
0.0
 11
21.10454230577099
 21
8.910093767502331
 31
0.0
  0
LINE
  5
36E
330
1F
100
AcDbEntity
  8
Visibile (ISO)_Num_Penna__1
  6
Continuous
100
AcDbLine
 10
21.10454230577099
 20
8.910093767502331
 30
0.0
 11
21.10454230577099
 21
8.805093767502667
 31
0.0
  0
LINE
  5
36F
330
1F
100
AcDbEntity
  8
Visibile (ISO)_Num_Penna__1
  6
Continuous
100
AcDbLine
 10
21.10454230577099
 20
9.030093767502236
 30
0.0
 11
21.10454230577099
 21
9.020093767502233
 31
0.0
  0
LINE
  5
370
330
1F
100
AcDbEntity
  8
Visibile (ISO)_Num_Penna__1
  6
Continuous
100
AcDbLine
 10
21.10454230577099
 20
9.020093767502233
 30
0.0
 11
21.10454230577099
 21
8.920093767502322
 31
0.0
  0
LINE
  5
371
330
1F
100
AcDbEntity
  8
Visibile (ISO)_Num_Penna__1
  6
Continuous
100
AcDbLine
 10
21.10454230577099
 20
9.470093767501154
 30
0.0
 11
21.10454230577099
 21
9.030093767502236
 31
0.0
  0
LINE
  5
372
330
1F
100
AcDbEntity
  8
Visibile (ISO)_Num_Penna__1
  6
Continuous
100
AcDbLine
 10
21.10454230577099
 20
9.58009376750104
 30
0.0
 11
21.10454230577099
 21
9.480093767501132
 31
0.0
  0
LINE
  5
373
330
1F
100
AcDbEntity
  8
Visibile (ISO)_Num_Penna__1
  6
Continuous
100
AcDbLine
 10
21.10454230577099
 20
9.695093767500592
 30
0.0
 11
21.10454230577099
 21
9.590093767501032
 31
0.0
  0
HATCH
  5
374
330
1F
100
AcDbEntity
  8
000_CIANO_Num_Penna__171
  6
Continuous
100
AcDbHatch
 10
0.0
 20
0.0
 30
0.0
210
0.0
220
0.0
230
1.0
  2
SOLID
 70
     1
 71
     0
 91
        2
 92
        3
 72
     1
 73
     1
 93
        6
 10
21.05454230577112
 20
9.041093767501903
 42
0.4142135623730951
 10
21.0610423057712
 20
9.047593767501766
 42
0.0
 10
21.0610423057712
 20
9.419093767501946
 42
0.0
 10
20.7880423057712
 20
9.419093767501946
 42
0.0
 10
20.7880423057712
 20
9.047593767501766
 42
0.4142135623730951
 10
20.79454230577113
 20
9.041093767501903
 42
0.0
 97
        0
 92
        2
 72
     1
 73
     1
 93
        6
 10
20.79104230577101
 20
9.047593767501979
 42
0.0
 10
20.79104230577101
 20
9.416093767501919
 42
0.0
 10
21.05804230577107
 20
9.416093767501919
 42
0.0
 10
21.05804230577107
 20
9.047593767501979
 42
-0.4142135623730951
 10
21.05454230577112
 20
9.044093767501946
 42
0.0
 10
20.79454230577113
 20
9.044093767501946
 42
-0.4142135623730951
 97
        0
 75
     0
 76
     1
 98
        0
450
        0
451
        0
460
0.0
461
0.0
452
        0
462
0.0
453
        0
470

  0
ARC
  5
375
330
1F
100
AcDbEntity
  8
000_CIANO_Num_Penna__171
  6
Continuous
100
AcDbCircle
 10
21.05454230577123
 20
9.047593767501766
 30
0.0
 40
0.0064999999998463
100
AcDbArc
 50
269.9999999989969
 51
0.0
  0
LINE
  5
376
330
1F
100
AcDbEntity
  8
000_CIANO_Num_Penna__171
  6
Continuous
100
AcDbLine
 10
21.0610423057712
 20
9.047593767501766
 30
0.0
 11
21.0610423057712
 21
9.419093767501946
 31
0.0
  0
LINE
  5
377
330
1F
100
AcDbEntity
  8
000_CIANO_Num_Penna__171
  6
Continuous
100
AcDbLine
 10
21.0610423057712
 20
9.419093767501946
 30
0.0
 11
20.7880423057712
 21
9.419093767501946
 31
0.0
  0
LINE
  5
378
330
1F
100
AcDbEntity
  8
000_CIANO_Num_Penna__171
  6
Continuous
100
AcDbLine
 10
20.7880423057712
 20
9.419093767501946
 30
0.0
 11
20.7880423057712
 21
9.047593767501766
 31
0.0
  0
ARC
  5
379
330
1F
100
AcDbEntity
  8
000_CIANO_Num_Penna__171
  6
Continuous
100
AcDbCircle
 10
20.79454230577102
 20
9.047593767501766
 30
0.0
 40
0.0064999999998463
100
AcDbArc
 50
180.0
 51
270.0000000010029
  0
LINE
  5
37A
330
1F
100
AcDbEntity
  8
000_CIANO_Num_Penna__171
  6
Continuous
100
AcDbLine
 10
20.79454230577113
 20
9.041093767501903
 30
0.0
 11
21.05454230577112
 21
9.041093767501903
 31
0.0
  0
LINE
  5
37B
330
1F
100
AcDbEntity
  8
000_CIANO_Num_Penna__171
  6
Continuous
100
AcDbLine
 10
20.79104230577101
 20
9.047593767501979
 30
0.0
 11
20.79104230577101
 21
9.416093767501919
 31
0.0
  0
LINE
  5
37C
330
1F
100
AcDbEntity
  8
000_CIANO_Num_Penna__171
  6
Continuous
100
AcDbLine
 10
20.79104230577101
 20
9.416093767501919
 30
0.0
 11
21.05804230577107
 21
9.416093767501919
 31
0.0
  0
LINE
  5
37D
330
1F
100
AcDbEntity
  8
000_CIANO_Num_Penna__171
  6
Continuous
100
AcDbLine
 10
21.05804230577107
 20
9.416093767501919
 30
0.0
 11
21.05804230577107
 21
9.047593767501979
 31
0.0
  0
ARC
  5
37E
330
1F
100
AcDbEntity
  8
000_CIANO_Num_Penna__171
  6
Continuous
100
AcDbCircle
 10
21.05454230577104
 20
9.047593767501863
 30
0.0
 40
0.0035000000000309
100
AcDbArc
 50
270.0000000018629
 51
0.0000000018629399
  0
LINE
  5
37F
330
1F
100
AcDbEntity
  8
000_CIANO_Num_Penna__171
  6
Continuous
100
AcDbLine
 10
21.05454230577112
 20
9.044093767501946
 30
0.0
 11
20.79454230577113
 21
9.044093767501946
 31
0.0
  0
ARC
  5
380
330
1F
100
AcDbEntity
  8
000_CIANO_Num_Penna__171
  6
Continuous
100
AcDbCircle
 10
20.79454230577102
 20
9.047593767501979
 30
0.0
 40
0.0035000000000309
100
AcDbArc
 50
180.0
 51
270.0000000018629
  0
LINE
  5
381
330
1F
100
AcDbEntity
  8
000_CIANO_Num_Penna__171
  6
Continuous
100
AcDbLine
 10
20.78804230577106
 20
9.452593767501952
 30
0.0
 11
20.78804230577106
 21
9.422093767501763
 31
0.0
  0
HATCH
  5
382
330
1F
100
AcDbEntity
  8
000_CELESTE_Num_Penna__95
  6
Continuous
100
AcDbHatch
 10
0.0
 20
0.0
 30
0.0
210
0.0
220
0.0
230
1.0
  2
SOLID
 70
     1
 71
     0
 91
        1
 92
        3
 72
     1
 73
     1
 93
        2
 10
20.91004230577102
 20
9.310093767501912
 42
1.0
 10
20.88004230577116
 20
9.310093767501912
 42
1.0
 97
        0
 75
     0
 76
     1
 98
        0
450
        0
451
        0
460
0.0
461
0.0
452
        0
462
0.0
453
        0
470

  0
HATCH
  5
383
330
1F
100
AcDbEntity
  8
000_CELESTE_Num_Penna__95
  6
Continuous
100
AcDbHatch
 10
0.0
 20
0.0
 30
0.0
210
0.0
220
0.0
230
1.0
  2
SOLID
 70
     1
 71
     0
 91
        1
 92
        3
 72
     1
 73
     1
 93
        2
 10
20.99304230577101
 20
9.310093767501912
 42
1.0
 10
20.96304230577116
 20
9.310093767501912
 42
1.0
 97
        0
 75
     0
 76
     1
 98
        0
450
        0
451
        0
460
0.0
461
0.0
452
        0
462
0.0
453
        0
470

  0
HATCH
  5
384
330
1F
100
AcDbEntity
  8
000_CELESTE_Num_Penna__95
  6
Continuous
100
AcDbHatch
 10
0.0
 20
0.0
 30
0.0
210
0.0
220
0.0
230
1.0
  2
SOLID
 70
     1
 71
     0
 91
        1
 92
        3
 72
     1
 73
     1
 93
        2
 10
20.99304230577101
 20
9.209093767501924
 42
1.0
 10
20.96304230577116
 20
9.209093767501924
 42
1.0
 97
        0
 75
     0
 76
     1
 98
        0
450
        0
451
        0
460
0.0
461
0.0
452
        0
462
0.0
453
        0
470

  0
HATCH
  5
385
330
1F
100
AcDbEntity
  8
000_CELESTE_Num_Penna__95
  6
Continuous
100
AcDbHatch
 10
0.0
 20
0.0
 30
0.0
210
0.0
220
0.0
230
1.0
  2
SOLID
 70
     1
 71
     0
 91
        1
 92
        3
 72
     1
 73
     1
 93
        2
 10
20.99304230577101
 20
9.151093767501931
 42
1.0
 10
20.96304230577116
 20
9.151093767501931
 42
1.0
 97
        0
 75
     0
 76
     1
 98
        0
450
        0
451
        0
460
0.0
461
0.0
452
        0
462
0.0
453
        0
470

  0
HATCH
  5
386
330
1F
100
AcDbEntity
  8
000_CELESTE_Num_Penna__95
  6
Continuous
100
AcDbHatch
 10
0.0
 20
0.0
 30
0.0
210
0.0
220
0.0
230
1.0
  2
SOLID
 70
     1
 71
     0
 91
        1
 92
        3
 72
     1
 73
     1
 93
        2
 10
20.91004230577102
 20
9.151093767501931
 42
1.0
 10
20.88004230577116
 20
9.151093767501931
 42
1.0
 97
        0
 75
     0
 76
     1
 98
        0
450
        0
451
        0
460
0.0
461
0.0
452
        0
462
0.0
453
        0
470

  0
HATCH
  5
387
330
1F
100
AcDbEntity
  8
000_CELESTE_Num_Penna__95
  6
Continuous
100
AcDbHatch
 10
0.0
 20
0.0
 30
0.0
210
0.0
220
0.0
230
1.0
  2
SOLID
 70
     1
 71
     0
 91
        1
 92
        3
 72
     1
 73
     1
 93
        2
 10
20.91004230577102
 20
9.209093767501924
 42
1.0
 10
20.88004230577116
 20
9.209093767501924
 42
1.0
 97
        0
 75
     0
 76
     1
 98
        0
450
        0
451
        0
460
0.0
461
0.0
452
        0
462
0.0
453
        0
470

  0
HATCH
  5
388
330
1F
100
AcDbEntity
  8
000_CIANO_Num_Penna__41
  6
Continuous
100
AcDbHatch
 10
0.0
 20
0.0
 30
0.0
210
0.0
220
0.0
230
1.0
  2
SOLID
 70
     1
 71
     0
 91
        1
 92
        3
 72
     0
 73
     1
 93
       12
 10
20.8070423057712
 20
9.360549364420393
 10
20.81411327411587
 20
9.360549364420393
 10
20.81411141082171
 20
9.367583042727332
 10
20.81690415991713
 20
9.3704153522941
 10
20.82520426612536
 20
9.360552615036539
 10
20.83364733206346
 20
9.360554851692398
 10
20.82141692414709
 20
9.375000216489157
 10
20.83146735171007
 20
9.385205224899747
 10
20.82430947698146
 20
9.385203328704378
 10
20.81410949238952
 20
9.374824859685958
 10
20.81410675085064
 20
9.385173789163305
 10
20.80705310111824
 20
9.385174105342542
 97
        0
 75
     0
 76
     1
 98
        0
450
        0
451
        0
460
0.0
461
0.0
452
        0
462
0.0
453
        0
470

  0
HATCH
  5
389
330
1F
100
AcDbEntity
  8
000_CIANO_Num_Penna__41
  6
Continuous
100
AcDbHatch
 10
0.0
 20
0.0
 30
0.0
210
0.0
220
0.0
230
1.0
  2
SOLID
 70
     1
 71
     0
 91
        1
 92
        3
 72
     0
 73
     1
 93
       10
 10
20.83762008287405
 20
9.360546698575817
 10
20.84473177411311
 20
9.360548582536553
 10
20.84472443876345
 20
9.375867737561506
 10
20.85606226691329
 20
9.360551584101557
 10
20.86419874031557
 20
9.360553739537721
 10
20.86419221254457
 20
9.385195171384085
 10
20.85710455587602
 20
9.385171449769115
 10
20.85716636090314
 20
9.369787245403443
 10
20.84622012968848
 20
9.38521755871794
 10
20.83761354923428
 20
9.385210286033467
 97
        0
 75
     0
 76
     1
 98
        0
450
        0
451
        0
460
0.0
461
0.0
452
        0
462
0.0
453
        0
470

  0
HATCH
  5
38A
330
1F
100
AcDbEntity
  8
000_CIANO_Num_Penna__41
  6
Continuous
100
AcDbHatch
 10
0.0
 20
0.0
 30
0.0
210
0.0
220
0.0
230
1.0
  2
SOLID
 70
     1
 71
     0
 91
        1
 92
        3
 72
     0
 73
     1
 93
       12
 10
20.88069828506508
 20
9.373338403565282
 10
20.86818927331976
 20
9.360563689713076
 10
20.87525883719465
 20
9.360565562513867
 10
20.88393748230402
 20
9.369479788337555
 10
20.89144097993056
 20
9.360557991640432
 10
20.89985236908052
 20
9.360572077595731
 10
20.888466963691
 20
9.374078467204268
 10
20.89951381994248
 20
9.385198599145482
 10
20.89244394447562
 20
9.385196726262476
 10
20.88522682978302
 20
9.377937393775907
 10
20.87899757540601
 20
9.385193164179996
 10
20.87074251990643
 20
9.38519690662801
 97
        0
 75
     0
 76
     1
 98
        0
450
        0
451
        0
460
0.0
461
0.0
452
        0
462
0.0
453
        0
470

  0
HATCH
  5
38B
330
1F
100
AcDbEntity
  8
000_CIANO_Num_Penna__41
  6
Continuous
100
AcDbHatch
 10
0.0
 20
0.0
 30
0.0
210
0.0
220
0.0
230
1.0
  2
SOLID
 70
     1
 71
     0
 91
        1
 92
        3
 72
     1
 73
     1
 93
        4
 10
20.81411791819636
 20
9.386602995973007
 42
-0.3344548468514837
 10
20.89244293709553
 20
9.386643716484373
 42
0.0
 10
20.89951094219882
 20
9.386639347808896
 42
0.3799540442924016
 10
20.80703930493968
 20
9.386601120774898
 42
0.0
 97
        0
 75
     0
 76
     1
 98
        0
450
        0
451
        0
460
0.0
461
0.0
452
        0
462
0.0
453
        0
470

  0
HATCH
  5
38C
330
1F
100
AcDbEntity
  8
000_CELESTE_Num_Penna__92
  6
Continuous
100
AcDbHatch
 10
0.0
 20
0.0
 30
0.0
210
0.0
220
0.0
230
1.0
  2
SOLID
 70
     1
 71
     0
 91
        1
 92
        3
 72
     1
 73
     1
 93
        2
 10
20.9700423057713
 20
9.099093767501782
 42
1.0
 10
20.93004230577111
 20
9.099093767501782
 42
1.0
 97
        0
 75
     0
 76
     1
 98
        0
450
        0
451
        0
460
0.0
461
0.0
452
        0
462
0.0
453
        0
470

  0
HATCH
  5
38D
330
1F
100
AcDbEntity
  8
0_Num_Penna__50
  6
Continuous
100
AcDbHatch
 10
0.0
 20
0.0
 30
0.0
210
0.0
220
0.0
230
1.0
  2
SOLID
 70
     1
 71
     0
 91
        1
 92
        3
 72
     0
 73
     1
 93
        4
 10
20.81354230577117
 20
9.336093767501637
 10
21.03554230577103
 20
9.336093767501637
 10
21.03554230577103
 20
9.339093767501919
 10
20.81354230577117
 20
9.339093767501919
 97
        0
 75
     0
 76
     1
 98
        0
450
        0
451
        0
460
0.0
461
0.0
452
        0
462
0.0
453
        0
470

  0
LWPOLYLINE
  5
38E
330
1F
100
AcDbEntity
  8
0_Num_Penna__50
  6
Continuous
100
AcDbPolyline
 90
        2
 70
   128
 43
0.0
 10
20.81354230577117
 20
9.336093767501637
 10
21.03554230577103
 20
9.336093767501637
  0
LWPOLYLINE
  5
38F
330
1F
100
AcDbEntity
  8
0_Num_Penna__50
  6
Continuous
100
AcDbPolyline
 90
        2
 70
   128
 43
0.0
 10
21.03554230577103
 20
9.339093767501919
 10
20.81354230577117
 20
9.339093767501919
  0
HATCH
  5
390
330
1F
100
AcDbEntity
  8
0_Num_Penna__50
  6
Continuous
100
AcDbHatch
 10
0.0
 20
0.0
 30
0.0
210
0.0
220
0.0
230
1.0
  2
SOLID
 70
     1
 71
     0
 91
        1
 92
        3
 72
     0
 73
     1
 93
        4
 10
21.03904230577104
 20
9.332593767501618
 10
21.03904230577104
 20
9.287593767501872
 10
21.04204230577122
 20
9.287593767501775
 10
21.04204230577122
 20
9.332593767501847
 97
        0
 75
     0
 76
     1
 98
        0
450
        0
451
        0
460
0.0
461
0.0
452
        0
462
0.0
453
        0
470

  0
LWPOLYLINE
  5
391
330
1F
100
AcDbEntity
  8
0_Num_Penna__50
  6
Continuous
100
AcDbPolyline
 90
        2
 70
   128
 43
0.0
 10
21.03904230577104
 20
9.332593767501618
 10
21.03904230577104
 20
9.287593767501872
  0
LWPOLYLINE
  5
392
330
1F
100
AcDbEntity
  8
0_Num_Penna__50
  6
Continuous
100
AcDbPolyline
 90
        2
 70
   128
 43
0.0
 10
21.04204230577122
 20
9.287593767501775
 10
21.04204230577122
 20
9.332593767501847
  0
HATCH
  5
393
330
1F
100
AcDbEntity
  8
0_Num_Penna__50
  6
Continuous
100
AcDbHatch
 10
0.0
 20
0.0
 30
0.0
210
0.0
220
0.0
230
1.0
  2
SOLID
 70
     1
 71
     0
 91
        1
 92
        3
 72
     0
 73
     1
 93
        4
 10
20.80704230577098
 20
9.332593767501847
 10
20.80704230577098
 20
9.287593767501872
 10
20.81004230577102
 20
9.287593767502116
 10
20.81004230577102
 20
9.332593767501847
 97
        0
 75
     0
 76
     1
 98
        0
450
        0
451
        0
460
0.0
461
0.0
452
        0
462
0.0
453
        0
470

  0
LWPOLYLINE
  5
394
330
1F
100
AcDbEntity
  8
0_Num_Penna__50
  6
Continuous
100
AcDbPolyline
 90
        2
 70
   128
 43
0.0
 10
20.80704230577098
 20
9.332593767501847
 10
20.80704230577098
 20
9.287593767501872
  0
LWPOLYLINE
  5
395
330
1F
100
AcDbEntity
  8
0_Num_Penna__50
  6
Continuous
100
AcDbPolyline
 90
        2
 70
   128
 43
0.0
 10
20.81004230577102
 20
9.287593767502116
 10
20.81004230577102
 20
9.332593767501847
  0
HATCH
  5
396
330
1F
100
AcDbEntity
  8
0_Num_Penna__50
  6
Continuous
100
AcDbHatch
 10
0.0
 20
0.0
 30
0.0
210
0.0
220
0.0
230
1.0
  2
SOLID
 70
     1
 71
     0
 91
        1
 92
        3
 72
     0
 73
     1
 93
        4
 10
20.81354230577117
 20
9.281093767501914
 10
21.03554230577103
 20
9.281093767501914
 10
21.03554230577103
 20
9.284093767501957
 10
20.81354230577117
 20
9.284093767501957
 97
        0
 75
     0
 76
     1
 98
        0
450
        0
451
        0
460
0.0
461
0.0
452
        0
462
0.0
453
        0
470

  0
LWPOLYLINE
  5
397
330
1F
100
AcDbEntity
  8
0_Num_Penna__50
  6
Continuous
100
AcDbPolyline
 90
        2
 70
   128
 43
0.0
 10
20.81354230577117
 20
9.281093767501914
 10
21.03554230577103
 20
9.281093767501914
  0
LWPOLYLINE
  5
398
330
1F
100
AcDbEntity
  8
0_Num_Penna__50
  6
Continuous
100
AcDbPolyline
 90
        2
 70
   128
 43
0.0
 10
21.03554230577103
 20
9.284093767501957
 10
20.81354230577117
 20
9.284093767501957
  0
HATCH
  5
399
330
1F
100
AcDbEntity
  8
0_Num_Penna__50
  6
Continuous
100
AcDbHatch
 10
0.0
 20
0.0
 30
0.0
210
0.0
220
0.0
230
1.0
  2
SOLID
 70
     1
 71
     0
 91
        1
 92
        3
 72
     1
 73
     1
 93
        4
 10
20.81354230577117
 20
9.339093767501793
 42
0.4142135623730951
 10
20.80704230577098
 20
9.332593767501847
 42
0.0
 10
20.81004230577102
 20
9.332593767501847
 42
-0.4142135623730951
 10
20.81354230577117
 20
9.336093767501637
 42
0.0
 97
        0
 75
     0
 76
     1
 98
        0
450
        0
451
        0
460
0.0
461
0.0
452
        0
462
0.0
453
        0
470

  0
ARC
  5
39A
330
1F
100
AcDbEntity
  8
0_Num_Penna__50
  6
Continuous
100
AcDbCircle
 10
20.81354230577117
 20
9.332593767501847
 30
0.0
 40
0.00649999999996
100
AcDbArc
 50
90.0
 51
180.0
  0
ARC
  5
39B
330
1F
100
AcDbEntity
  8
0_Num_Penna__50
  6
Continuous
100
AcDbCircle
 10
20.81354230577117
 20
9.332593767501847
 30
0.0
 40
0.0035000000000309
100
AcDbArc
 50
90.0
 51
180.0
  0
HATCH
  5
39C
330
1F
100
AcDbEntity
  8
0_Num_Penna__50
  6
Continuous
100
AcDbHatch
 10
0.0
 20
0.0
 30
0.0
210
0.0
220
0.0
230
1.0
  2
SOLID
 70
     1
 71
     0
 91
        1
 92
        3
 72
     1
 73
     1
 93
        4
 10
20.80704230577098
 20
9.287593767501775
 42
0.4142135623730951
 10
20.81354230577117
 20
9.281093767501914
 42
0.0
 10
20.81354230577117
 20
9.284093767501957
 42
-0.4142135623730951
 10
20.81004230577102
 20
9.287593767502116
 42
0.0
 97
        0
 75
     0
 76
     1
 98
        0
450
        0
451
        0
460
0.0
461
0.0
452
        0
462
0.0
453
        0
470

  0
ARC
  5
39D
330
1F
100
AcDbEntity
  8
0_Num_Penna__50
  6
Continuous
100
AcDbCircle
 10
20.81354230577117
 20
9.287593767501872
 30
0.0
 40
0.0065000000000737
100
AcDbArc
 50
180.0
 51
270.0
  0
ARC
  5
39E
330
1F
100
AcDbEntity
  8
0_Num_Penna__50
  6
Continuous
100
AcDbCircle
 10
20.81354230577117
 20
9.287593767502116
 30
0.0
 40
0.0035000000001446
100
AcDbArc
 50
180.0
 51
270.0
  0
HATCH
  5
39F
330
1F
100
AcDbEntity
  8
0_Num_Penna__50
  6
Continuous
100
AcDbHatch
 10
0.0
 20
0.0
 30
0.0
210
0.0
220
0.0
230
1.0
  2
SOLID
 70
     1
 71
     0
 91
        1
 92
        3
 72
     1
 73
     1
 93
        4
 10
21.03554230577103
 20
9.281093767501571
 42
0.4142135623730951
 10
21.04204230577085
 20
9.287593767501775
 42
0.0
 10
21.03904230577115
 20
9.287593767501775
 42
-0.4142135623730951
 10
21.03554230577103
 20
9.284093767501957
 42
0.0
 97
        0
 75
     0
 76
     1
 98
        0
450
        0
451
        0
460
0.0
461
0.0
452
        0
462
0.0
453
        0
470

  0
ARC
  5
3A0
330
1F
100
AcDbEntity
  8
0_Num_Penna__50
  6
Continuous
100
AcDbCircle
 10
21.03554230577103
 20
9.287593767501775
 30
0.0
 40
0.0065000000000737
100
AcDbArc
 50
270.0
 51
0.0
  0
ARC
  5
3A1
330
1F
100
AcDbEntity
  8
0_Num_Penna__50
  6
Continuous
100
AcDbCircle
 10
21.03554230577103
 20
9.287593767501872
 30
0.0
 40
0.0035000000001446
100
AcDbArc
 50
270.0
 51
0.0
  0
HATCH
  5
3A2
330
1F
100
AcDbEntity
  8
0_Num_Penna__50
  6
Continuous
100
AcDbHatch
 10
0.0
 20
0.0
 30
0.0
210
0.0
220
0.0
230
1.0
  2
SOLID
 70
     1
 71
     0
 91
        1
 92
        3
 72
     1
 73
     1
 93
        4
 10
21.04204230577085
 20
9.332593767501618
 42
0.4142135623730951
 10
21.03554230577103
 20
9.339093767501919
 42
0.0
 10
21.03554230577103
 20
9.336093767501637
 42
-0.4142135623730951
 10
21.03904230577115
 20
9.332593767501618
 42
0.0
 97
        0
 75
     0
 76
     1
 98
        0
450
        0
451
        0
460
0.0
461
0.0
452
        0
462
0.0
453
        0
470

  0
ARC
  5
3A3
330
1F
100
AcDbEntity
  8
0_Num_Penna__50
  6
Continuous
100
AcDbCircle
 10
21.03554230577103
 20
9.332593767501847
 30
0.0
 40
0.0065000000000737
100
AcDbArc
 50
0.0
 51
90.0
  0
ARC
  5
3A4
330
1F
100
AcDbEntity
  8
0_Num_Penna__50
  6
Continuous
100
AcDbCircle
 10
21.03554230577103
 20
9.332593767501618
 30
0.0
 40
0.0035000000001446
100
AcDbArc
 50
0.0
 51
90.0
  0
HATCH
  5
3A5
330
1F
100
AcDbEntity
  8
0_Num_Penna__50
  6
Continuous
100
AcDbHatch
 10
0.0
 20
0.0
 30
0.0
210
0.0
220
0.0
230
1.0
  2
SOLID
 70
     1
 71
     0
 91
        1
 92
        3
 72
     0
 73
     1
 93
        4
 10
20.81354230577117
 20
9.235093767501751
 10
21.03554230577103
 20
9.235093767501751
 10
21.03554230577103
 20
9.238093767501908
 10
20.81354230577117
 20
9.238093767501908
 97
        0
 75
     0
 76
     1
 98
        0
450
        0
451
        0
460
0.0
461
0.0
452
        0
462
0.0
453
        0
470

  0
LWPOLYLINE
  5
3A6
330
1F
100
AcDbEntity
  8
0_Num_Penna__50
  6
Continuous
100
AcDbPolyline
 90
        2
 70
   128
 43
0.0
 10
20.81354230577117
 20
9.235093767501751
 10
21.03554230577103
 20
9.235093767501751
  0
LWPOLYLINE
  5
3A7
330
1F
100
AcDbEntity
  8
0_Num_Penna__50
  6
Continuous
100
AcDbPolyline
 90
        2
 70
   128
 43
0.0
 10
21.03554230577103
 20
9.238093767501908
 10
20.81354230577117
 20
9.238093767501908
  0
HATCH
  5
3A8
330
1F
100
AcDbEntity
  8
0_Num_Penna__50
  6
Continuous
100
AcDbHatch
 10
0.0
 20
0.0
 30
0.0
210
0.0
220
0.0
230
1.0
  2
SOLID
 70
     1
 71
     0
 91
        1
 92
        3
 72
     0
 73
     1
 93
        4
 10
21.03904230577104
 20
9.231593767501962
 10
21.03904230577104
 20
9.186593767501886
 10
21.04204230577122
 20
9.186593767501886
 10
21.04204230577122
 20
9.231593767501721
 97
        0
 75
     0
 76
     1
 98
        0
450
        0
451
        0
460
0.0
461
0.0
452
        0
462
0.0
453
        0
470

  0
LWPOLYLINE
  5
3A9
330
1F
100
AcDbEntity
  8
0_Num_Penna__50
  6
Continuous
100
AcDbPolyline
 90
        2
 70
   128
 43
0.0
 10
21.03904230577104
 20
9.231593767501962
 10
21.03904230577104
 20
9.186593767501886
  0
LWPOLYLINE
  5
3AA
330
1F
100
AcDbEntity
  8
0_Num_Penna__50
  6
Continuous
100
AcDbPolyline
 90
        2
 70
   128
 43
0.0
 10
21.04204230577122
 20
9.186593767501886
 10
21.04204230577122
 20
9.231593767501721
  0
HATCH
  5
3AB
330
1F
100
AcDbEntity
  8
0_Num_Penna__50
  6
Continuous
100
AcDbHatch
 10
0.0
 20
0.0
 30
0.0
210
0.0
220
0.0
230
1.0
  2
SOLID
 70
     1
 71
     0
 91
        1
 92
        3
 72
     0
 73
     1
 93
        4
 10
20.80704230577098
 20
9.231593767501721
 10
20.80704230577098
 20
9.186593767501886
 10
20.81004230577102
 20
9.186593767501886
 10
20.81004230577102
 20
9.231593767501962
 97
        0
 75
     0
 76
     1
 98
        0
450
        0
451
        0
460
0.0
461
0.0
452
        0
462
0.0
453
        0
470

  0
LWPOLYLINE
  5
3AC
330
1F
100
AcDbEntity
  8
0_Num_Penna__50
  6
Continuous
100
AcDbPolyline
 90
        2
 70
   128
 43
0.0
 10
20.80704230577098
 20
9.231593767501721
 10
20.80704230577098
 20
9.186593767501886
  0
LWPOLYLINE
  5
3AD
330
1F
100
AcDbEntity
  8
0_Num_Penna__50
  6
Continuous
100
AcDbPolyline
 90
        2
 70
   128
 43
0.0
 10
20.81004230577102
 20
9.186593767501886
 10
20.81004230577102
 20
9.231593767501962
  0
HATCH
  5
3AE
330
1F
100
AcDbEntity
  8
0_Num_Penna__50
  6
Continuous
100
AcDbHatch
 10
0.0
 20
0.0
 30
0.0
210
0.0
220
0.0
230
1.0
  2
SOLID
 70
     1
 71
     0
 91
        1
 92
        3
 72
     0
 73
     1
 93
        4
 10
20.81354230577117
 20
9.180093767501915
 10
21.03554230577103
 20
9.180093767501915
 10
21.03554230577103
 20
9.183093767501956
 10
20.81354230577117
 20
9.183093767501956
 97
        0
 75
     0
 76
     1
 98
        0
450
        0
451
        0
460
0.0
461
0.0
452
        0
462
0.0
453
        0
470

  0
LWPOLYLINE
  5
3AF
330
1F
100
AcDbEntity
  8
0_Num_Penna__50
  6
Continuous
100
AcDbPolyline
 90
        2
 70
   128
 43
0.0
 10
20.81354230577117
 20
9.180093767501915
 10
21.03554230577103
 20
9.180093767501915
  0
LWPOLYLINE
  5
3B0
330
1F
100
AcDbEntity
  8
0_Num_Penna__50
  6
Continuous
100
AcDbPolyline
 90
        2
 70
   128
 43
0.0
 10
21.03554230577103
 20
9.183093767501956
 10
20.81354230577117
 20
9.183093767501956
  0
HATCH
  5
3B1
330
1F
100
AcDbEntity
  8
0_Num_Penna__50
  6
Continuous
100
AcDbHatch
 10
0.0
 20
0.0
 30
0.0
210
0.0
220
0.0
230
1.0
  2
SOLID
 70
     1
 71
     0
 91
        1
 92
        3
 72
     1
 73
     1
 93
        4
 10
20.81354230577117
 20
9.238093767501339
 42
0.4142135623730951
 10
20.80704230577098
 20
9.231593767501721
 42
0.0
 10
20.81004230577111
 20
9.231593767501721
 42
-0.4142135623730951
 10
20.81354230577117
 20
9.235093767501979
 42
0.0
 97
        0
 75
     0
 76
     1
 98
        0
450
        0
451
        0
460
0.0
461
0.0
452
        0
462
0.0
453
        0
470

  0
ARC
  5
3B2
330
1F
100
AcDbEntity
  8
0_Num_Penna__50
  6
Continuous
100
AcDbCircle
 10
20.81354230577117
 20
9.231593767501721
 30
0.0
 40
0.0064999999998463
100
AcDbArc
 50
90.0
 51
180.0
  0
ARC
  5
3B3
330
1F
100
AcDbEntity
  8
0_Num_Penna__50
  6
Continuous
100
AcDbCircle
 10
20.81354230577117
 20
9.231593767501962
 30
0.0
 40
0.0034999999999172
100
AcDbArc
 50
90.0
 51
180.0
  0
HATCH
  5
3B4
330
1F
100
AcDbEntity
  8
0_Num_Penna__50
  6
Continuous
100
AcDbHatch
 10
0.0
 20
0.0
 30
0.0
210
0.0
220
0.0
230
1.0
  2
SOLID
 70
     1
 71
     0
 91
        1
 92
        3
 72
     1
 73
     1
 93
        4
 10
20.80704230577098
 20
9.186593767501886
 42
0.4142135623730951
 10
20.81354230577117
 20
9.180093767501915
 42
0.0
 10
20.81354230577117
 20
9.183093767501503
 42
-0.4142135623730951
 10
20.81004230577102
 20
9.186593767501886
 42
0.0
 97
        0
 75
     0
 76
     1
 98
        0
450
        0
451
        0
460
0.0
461
0.0
452
        0
462
0.0
453
        0
470

  0
ARC
  5
3B5
330
1F
100
AcDbEntity
  8
0_Num_Penna__50
  6
Continuous
100
AcDbCircle
 10
20.81354230577117
 20
9.186593767501886
 30
0.0
 40
0.0065000000000737
100
AcDbArc
 50
180.0
 51
270.0
  0
ARC
  5
3B6
330
1F
100
AcDbEntity
  8
0_Num_Penna__50
  6
Continuous
100
AcDbCircle
 10
20.81354230577117
 20
9.186593767501886
 30
0.0
 40
0.0035000000001446
100
AcDbArc
 50
180.0
 51
270.0
  0
HATCH
  5
3B7
330
1F
100
AcDbEntity
  8
0_Num_Penna__50
  6
Continuous
100
AcDbHatch
 10
0.0
 20
0.0
 30
0.0
210
0.0
220
0.0
230
1.0
  2
SOLID
 70
     1
 71
     0
 91
        1
 92
        3
 72
     1
 73
     1
 93
        4
 10
21.03554230577103
 20
9.180093767501915
 42
0.4142135623730951
 10
21.04204230577122
 20
9.186593767501886
 42
0.0
 10
21.03904230577115
 20
9.186593767501886
 42
-0.4142135623730951
 10
21.03554230577103
 20
9.183093767501956
 42
0.0
 97
        0
 75
     0
 76
     1
 98
        0
450
        0
451
        0
460
0.0
461
0.0
452
        0
462
0.0
453
        0
470

  0
ARC
  5
3B8
330
1F
100
AcDbEntity
  8
0_Num_Penna__50
  6
Continuous
100
AcDbCircle
 10
21.03554230577103
 20
9.186593767501886
 30
0.0
 40
0.0065000000000737
100
AcDbArc
 50
270.0
 51
0.0
  0
ARC
  5
3B9
330
1F
100
AcDbEntity
  8
0_Num_Penna__50
  6
Continuous
100
AcDbCircle
 10
21.03554230577103
 20
9.186593767501886
 30
0.0
 40
0.0035000000001446
100
AcDbArc
 50
270.0
 51
0.0
  0
HATCH
  5
3BA
330
1F
100
AcDbEntity
  8
0_Num_Penna__50
  6
Continuous
100
AcDbHatch
 10
0.0
 20
0.0
 30
0.0
210
0.0
220
0.0
230
1.0
  2
SOLID
 70
     1
 71
     0
 91
        1
 92
        3
 72
     1
 73
     1
 93
        4
 10
21.04204230577085
 20
9.231593767501491
 42
0.4142135623730951
 10
21.03554230577103
 20
9.238093767501908
 42
0.0
 10
21.03554230577103
 20
9.235093767501979
 42
-0.4142135623730951
 10
21.03904230577104
 20
9.231593767501962
 42
0.0
 97
        0
 75
     0
 76
     1
 98
        0
450
        0
451
        0
460
0.0
461
0.0
452
        0
462
0.0
453
        0
470

  0
ARC
  5
3BB
330
1F
100
AcDbEntity
  8
0_Num_Penna__50
  6
Continuous
100
AcDbCircle
 10
21.03554230577103
 20
9.231593767501721
 30
0.0
 40
0.0065000000000737
100
AcDbArc
 50
0.0
 51
90.0
  0
ARC
  5
3BC
330
1F
100
AcDbEntity
  8
0_Num_Penna__50
  6
Continuous
100
AcDbCircle
 10
21.03554230577103
 20
9.231593767501962
 30
0.0
 40
0.0035000000001446
100
AcDbArc
 50
0.0
 51
90.0
  0
HATCH
  5
3BD
330
1F
100
AcDbEntity
  8
0_Num_Penna__50
  6
Continuous
100
AcDbHatch
 10
0.0
 20
0.0
 30
0.0
210
0.0
220
0.0
230
1.0
  2
SOLID
 70
     1
 71
     0
 91
        1
 92
        3
 72
     1
 73
     1
 93
        4
 10
20.98154230577117
 20
9.099093767501782
 42
1.0
 10
20.91854230577116
 20
9.099093767501782
 42
0.0
 10
20.92154230577097
 20
9.099093767501782
 42
-1.0
 10
20.97854230577113
 20
9.099093767501782
 42
0.0
 97
        0
 75
     0
 76
     1
 98
        0
450
        0
451
        0
460
0.0
461
0.0
452
        0
462
0.0
453
        0
470

  0
ARC
  5
3BE
330
1F
100
AcDbEntity
  8
0_Num_Penna__50
  6
Continuous
100
AcDbCircle
 10
20.95004230577121
 20
9.099093767501782
 30
0.0
 40
0.0315000000000509
100
AcDbArc
 50
0.0
 51
180.0
  0
ARC
  5
3BF
330
1F
100
AcDbEntity
  8
0_Num_Penna__50
  6
Continuous
100
AcDbCircle
 10
20.95004230577121
 20
9.099093767501782
 30
0.0
 40
0.0285000000001219
100
AcDbArc
 50
0.0
 51
180.0
  0
HATCH
  5
3C0
330
1F
100
AcDbEntity
  8
0_Num_Penna__50
  6
Continuous
100
AcDbHatch
 10
0.0
 20
0.0
 30
0.0
210
0.0
220
0.0
230
1.0
  2
SOLID
 70
     1
 71
     0
 91
        1
 92
        3
 72
     1
 73
     1
 93
        4
 10
20.91854230577116
 20
9.099093767501782
 42
1.0
 10
20.98154230577117
 20
9.099093767501782
 42
0.0
 10
20.97854230577113
 20
9.099093767501782
 42
-1.0
 10
20.92154230577097
 20
9.099093767501782
 42
0.0
 97
        0
 75
     0
 76
     1
 98
        0
450
        0
451
        0
460
0.0
461
0.0
452
        0
462
0.0
453
        0
470

  0
ARC
  5
3C1
330
1F
100
AcDbEntity
  8
0_Num_Penna__50
  6
Continuous
100
AcDbCircle
 10
20.95004230577121
 20
9.099093767501782
 30
0.0
 40
0.0315000000000509
100
AcDbArc
 50
180.0
 51
0.0
  0
ARC
  5
3C2
330
1F
100
AcDbEntity
  8
0_Num_Penna__50
  6
Continuous
100
AcDbCircle
 10
20.95004230577121
 20
9.099093767501782
 30
0.0
 40
0.0285000000001219
100
AcDbArc
 50
180.0
 51
0.0
  0
LINE
  5
3C3
330
1F
100
AcDbEntity
  8
Visibile (ISO)_Num_Penna__1
  6
Continuous
100
AcDbLine
 10
20.782042305771
 20
9.040093767501943
 30
0.0
 11
20.782042305771
 21
9.460093767501774
 31
0.0
  0
LINE
  5
3C4
330
1F
100
AcDbEntity
  8
Visibile (ISO)_Num_Penna__1
  6
Continuous
100
AcDbLine
 10
20.787042305771
 20
9.465093767501768
 30
0.0
 11
21.0620423057712
 21
9.465093767501768
 31
0.0
  0
LINE
  5
3C5
330
1F
100
AcDbEntity
  8
Visibile (ISO)_Num_Penna__1
  6
Continuous
100
AcDbLine
 10
21.06704230577108
 20
9.460093767501774
 30
0.0
 11
21.06704230577108
 21
9.040093767501943
 31
0.0
  0
LINE
  5
3C6
330
1F
100
AcDbEntity
  8
Visibile (ISO)_Num_Penna__1
  6
Continuous
100
AcDbLine
 10
20.787042305771
 20
9.035093767501932
 30
0.0
 11
21.0620423057712
 21
9.035093767501932
 31
0.0
  0
LINE
  5
3C7
330
1F
100
AcDbEntity
  8
Visibile (ISO)_Num_Penna__41
  6
Continuous
100
AcDbLine
 10
20.86419874031546
 20
9.360553739537721
 30
0.0
 11
20.86419221254457
 21
9.385195171384212
 31
0.0
  0
LINE
  5
3C8
330
1F
100
AcDbEntity
  8
Visibile (ISO)_Num_Penna__41
  6
Continuous
100
AcDbLine
 10
20.85606226691329
 20
9.36055158410133
 30
0.0
 11
20.86419874031546
 21
9.360553739537721
 31
0.0
  0
LINE
  5
3C9
330
1F
100
AcDbEntity
  8
Visibile (ISO)_Num_Penna__41
  6
Continuous
100
AcDbLine
 10
20.84472443876345
 20
9.375867737561721
 30
0.0
 11
20.85606226691329
 21
9.36055158410133
 31
0.0
  0
LINE
  5
3CA
330
1F
100
AcDbEntity
  8
Visibile (ISO)_Num_Penna__41
  6
Continuous
100
AcDbLine
 10
20.84473177411311
 20
9.360548582536553
 30
0.0
 11
20.84472443876345
 21
9.375867737561721
 31
0.0
  0
LINE
  5
3CB
330
1F
100
AcDbEntity
  8
Visibile (ISO)_Num_Penna__41
  6
Continuous
100
AcDbLine
 10
20.83762008287405
 20
9.360546698575817
 30
0.0
 11
20.84473177411311
 21
9.360548582536553
 31
0.0
  0
LINE
  5
3CC
330
1F
100
AcDbEntity
  8
Visibile (ISO)_Num_Penna__41
  6
Continuous
100
AcDbLine
 10
20.83761354923419
 20
9.385210286033467
 30
0.0
 11
20.83762008287405
 21
9.360546698575817
 31
0.0
  0
LINE
  5
3CD
330
1F
100
AcDbEntity
  8
Visibile (ISO)_Num_Penna__41
  6
Continuous
100
AcDbLine
 10
20.84622012968821
 20
9.38521755871794
 30
0.0
 11
20.83761354923419
 21
9.385210286033467
 31
0.0
  0
LINE
  5
3CE
330
1F
100
AcDbEntity
  8
Visibile (ISO)_Num_Penna__41
  6
Continuous
100
AcDbLine
 10
20.85716636090351
 20
9.369787245403443
 30
0.0
 11
20.84622012968821
 21
9.38521755871794
 31
0.0
  0
LINE
  5
3CF
330
1F
100
AcDbEntity
  8
Visibile (ISO)_Num_Penna__41
  6
Continuous
100
AcDbLine
 10
20.85710455587602
 20
9.385171449769115
 30
0.0
 11
20.85716636090351
 21
9.369787245403443
 31
0.0
  0
LINE
  5
3D0
330
1F
100
AcDbEntity
  8
Visibile (ISO)_Num_Penna__41
  6
Continuous
100
AcDbLine
 10
20.86419221254457
 20
9.385195171384212
 30
0.0
 11
20.85710455587602
 21
9.385171449769115
 31
0.0
  0
LINE
  5
3D1
330
1F
100
AcDbEntity
  8
Visibile (ISO)_Num_Penna__41
  6
Continuous
100
AcDbLine
 10
20.82141692414709
 20
9.375000216489382
 30
0.0
 11
20.83146735171007
 21
9.385205224899747
 31
0.0
  0
LINE
  5
3D2
330
1F
100
AcDbEntity
  8
Visibile (ISO)_Num_Penna__41
  6
Continuous
100
AcDbLine
 10
20.83146735171007
 20
9.385205224899747
 30
0.0
 11
20.82430947698146
 21
9.385203328704378
 31
0.0
  0
LINE
  5
3D3
330
1F
100
AcDbEntity
  8
Visibile (ISO)_Num_Penna__41
  6
Continuous
100
AcDbLine
 10
20.82430947698146
 20
9.385203328704378
 30
0.0
 11
20.81410949238952
 21
9.374824859685958
 31
0.0
  0
LINE
  5
3D4
330
1F
100
AcDbEntity
  8
Visibile (ISO)_Num_Penna__41
  6
Continuous
100
AcDbLine
 10
20.81410949238952
 20
9.374824859685958
 30
0.0
 11
20.81410675085053
 21
9.385173789163305
 31
0.0
  0
LINE
  5
3D5
330
1F
100
AcDbEntity
  8
Visibile (ISO)_Num_Penna__41
  6
Continuous
100
AcDbLine
 10
20.81410675085053
 20
9.385173789163305
 30
0.0
 11
20.80705310111813
 21
9.385174105342656
 31
0.0
  0
LINE
  5
3D6
330
1F
100
AcDbEntity
  8
Visibile (ISO)_Num_Penna__41
  6
Continuous
100
AcDbLine
 10
20.80705310111813
 20
9.385174105342656
 30
0.0
 11
20.80704230577098
 21
9.360549364420393
 31
0.0
  0
LINE
  5
3D7
330
1F
100
AcDbEntity
  8
Visibile (ISO)_Num_Penna__41
  6
Continuous
100
AcDbLine
 10
20.80704230577098
 20
9.360549364420393
 30
0.0
 11
20.81411327411587
 21
9.360549364420393
 31
0.0
  0
LINE
  5
3D8
330
1F
100
AcDbEntity
  8
Visibile (ISO)_Num_Penna__41
  6
Continuous
100
AcDbLine
 10
20.81411327411587
 20
9.360549364420393
 30
0.0
 11
20.81411141082171
 21
9.367583042726863
 31
0.0
  0
LINE
  5
3D9
330
1F
100
AcDbEntity
  8
Visibile (ISO)_Num_Penna__41
  6
Continuous
100
AcDbLine
 10
20.81411141082171
 20
9.367583042726863
 30
0.0
 11
20.81690415991713
 21
9.3704153522941
 31
0.0
  0
LINE
  5
3DA
330
1F
100
AcDbEntity
  8
Visibile (ISO)_Num_Penna__41
  6
Continuous
100
AcDbLine
 10
20.81690415991713
 20
9.3704153522941
 30
0.0
 11
20.82520426612516
 21
9.360552615036539
 31
0.0
  0
LINE
  5
3DB
330
1F
100
AcDbEntity
  8
Visibile (ISO)_Num_Penna__41
  6
Continuous
100
AcDbLine
 10
20.82520426612516
 20
9.360552615036539
 30
0.0
 11
20.83364733206392
 21
9.360554851692398
 31
0.0
  0
LINE
  5
3DC
330
1F
100
AcDbEntity
  8
Visibile (ISO)_Num_Penna__41
  6
Continuous
100
AcDbLine
 10
20.83364733206392
 20
9.360554851692398
 30
0.0
 11
20.82141692414709
 21
9.375000216489382
 31
0.0
  0
LINE
  5
3DD
330
1F
100
AcDbEntity
  8
Visibile (ISO)_Num_Penna__41
  6
Continuous
100
AcDbLine
 10
20.87074251990643
 20
9.385196906628351
 30
0.0
 11
20.88069828506508
 21
9.373338403565282
 31
0.0
  0
LINE
  5
3DE
330
1F
100
AcDbEntity
  8
Visibile (ISO)_Num_Penna__41
  6
Continuous
100
AcDbLine
 10
20.88069828506508
 20
9.373338403565282
 30
0.0
 11
20.8681892733195
 21
9.360563689713076
 31
0.0
  0
LINE
  5
3DF
330
1F
100
AcDbEntity
  8
Visibile (ISO)_Num_Penna__41
  6
Continuous
100
AcDbLine
 10
20.8681892733195
 20
9.360563689713076
 30
0.0
 11
20.87525883719465
 21
9.360565562513867
 31
0.0
  0
LINE
  5
3E0
330
1F
100
AcDbEntity
  8
Visibile (ISO)_Num_Penna__41
  6
Continuous
100
AcDbLine
 10
20.87525883719465
 20
9.360565562513867
 30
0.0
 11
20.88393748230391
 21
9.369479788337555
 31
0.0
  0
LINE
  5
3E1
330
1F
100
AcDbEntity
  8
Visibile (ISO)_Num_Penna__41
  6
Continuous
100
AcDbLine
 10
20.88393748230391
 20
9.369479788337555
 30
0.0
 11
20.89144097993071
 21
9.36055799164032
 31
0.0
  0
LINE
  5
3E2
330
1F
100
AcDbEntity
  8
Visibile (ISO)_Num_Penna__41
  6
Continuous
100
AcDbLine
 10
20.89144097993071
 20
9.36055799164032
 30
0.0
 11
20.89985236908063
 21
9.360572077595262
 31
0.0
  0
LINE
  5
3E3
330
1F
100
AcDbEntity
  8
Visibile (ISO)_Num_Penna__41
  6
Continuous
100
AcDbLine
 10
20.89985236908063
 20
9.360572077595262
 30
0.0
 11
20.888466963691
 21
9.374078467204268
 31
0.0
  0
LINE
  5
3E4
330
1F
100
AcDbEntity
  8
Visibile (ISO)_Num_Penna__41
  6
Continuous
100
AcDbLine
 10
20.888466963691
 20
9.374078467204268
 30
0.0
 11
20.89951381994248
 21
9.385198599145823
 31
0.0
  0
LINE
  5
3E5
330
1F
100
AcDbEntity
  8
Visibile (ISO)_Num_Penna__41
  6
Continuous
100
AcDbLine
 10
20.89951381994248
 20
9.385198599145823
 30
0.0
 11
20.89244394447573
 21
9.385196726262476
 31
0.0
  0
LINE
  5
3E6
330
1F
100
AcDbEntity
  8
Visibile (ISO)_Num_Penna__41
  6
Continuous
100
AcDbLine
 10
20.89244394447573
 20
9.385196726262476
 30
0.0
 11
20.88522682978302
 21
9.377937393775907
 31
0.0
  0
LINE
  5
3E7
330
1F
100
AcDbEntity
  8
Visibile (ISO)_Num_Penna__41
  6
Continuous
100
AcDbLine
 10
20.88522682978302
 20
9.377937393775907
 30
0.0
 11
20.87899757540601
 21
9.385193164179652
 31
0.0
  0
LINE
  5
3E8
330
1F
100
AcDbEntity
  8
Visibile (ISO)_Num_Penna__41
  6
Continuous
100
AcDbLine
 10
20.87899757540601
 20
9.385193164179652
 30
0.0
 11
20.87074251990643
 21
9.385196906628351
 31
0.0
  0
LINE
  5
3E9
330
1F
100
AcDbEntity
  8
Visibile (ISO)_Num_Penna__41
  6
Continuous
100
AcDbLine
 10
20.89244293709553
 20
9.386643716484373
 30
0.0
 11
20.89951094219882
 21
9.386639347808896
 31
0.0
  0
LINE
  5
3EA
330
1F
100
AcDbEntity
  8
Visibile (ISO)_Num_Penna__41
  6
Continuous
100
AcDbLine
 10
20.80703930494005
 20
9.386601120774898
 30
0.0
 11
20.81411791819627
 21
9.386602995973007
 31
0.0
  0
LINE
  5
3EB
330
1F
100
AcDbEntity
  8
Visibile (ISO)_Num_Penna__1
  6
Continuous
100
AcDbLine
 10
20.74454230577118
 20
8.935093767501456
 30
0.0
 11
20.74454230577118
 21
9.020093767502416
 31
0.0
  0
LINE
  5
3EC
330
1F
100
AcDbEntity
  8
Visibile (ISO)_Num_Penna__1
  6
Continuous
100
AcDbLine
 10
20.74454230577118
 20
9.020093767502416
 30
0.0
 11
20.74454230577118
 21
9.030093767501952
 31
0.0
  0
LINE
  5
3ED
330
1F
100
AcDbEntity
  8
Visibile (ISO)_Num_Penna__1
  6
Continuous
100
AcDbLine
 10
20.74454230577118
 20
9.470093767501436
 30
0.0
 11
20.74454230577118
 21
9.030093767501952
 31
0.0
  0
LINE
  5
3EE
330
1F
100
AcDbEntity
  8
Visibile (ISO)_Num_Penna__1
  6
Continuous
100
AcDbLine
 10
20.74454230577118
 20
9.470093767501436
 30
0.0
 11
20.74454230577118
 21
9.480093767501543
 31
0.0
  0
LINE
  5
3EF
330
1F
100
AcDbEntity
  8
Visibile (ISO)_Num_Penna__1
  6
Continuous
100
AcDbLine
 10
20.74454230577118
 20
9.480093767501543
 30
0.0
 11
20.74454230577118
 21
9.695093767501447
 31
0.0
  0
LINE
  5
3F0
330
1F
100
AcDbEntity
  8
Visibile (ISO)_Num_Penna__1
  6
Continuous
100
AcDbLine
 10
20.74454230577118
 20
8.80509376750146
 30
0.0
 11
20.74454230577118
 21
8.92509376750182
 31
0.0
  0
LINE
  5
3F1
330
1F
100
AcDbEntity
  8
Visibile (ISO)_Num_Penna__1
  6
Continuous
100
AcDbLine
 10
20.74454230577118
 20
8.935093767501456
 30
0.0
 11
20.74454230577118
 21
8.92509376750182
 31
0.0
  0
LINE
  5
3F2
330
1F
100
AcDbEntity
  8
Visibile (ISO)_Num_Penna__1
  6
Continuous
100
AcDbLine
 10
20.7495423057712
 20
8.930093767501475
 30
0.0
 11
21.099542305771
 21
8.930093767501475
 31
0.0
  0
LINE
  5
3F3
330
1F
100
AcDbEntity
  8
Visibile (ISO)_Num_Penna__1
  6
Continuous
100
AcDbLine
 10
21.07154231558769
 20
8.903073041560304
 30
0.0
 11
21.071542314277
 21
8.925089081075711
 31
0.0
  0
LINE
  5
3F4
330
1F
100
AcDbEntity
  8
Visibile (ISO)_Num_Penna__1
  6
Continuous
100
AcDbLine
 10
21.07954230577101
 20
8.902495691290113
 30
0.0
 11
21.07954230577101
 21
8.867691843713116
 31
0.0
  0
LINE
  5
3F5
330
1F
100
AcDbEntity
  8
Visibile (ISO)_Num_Penna__1
  6
Continuous
100
AcDbLine
 10
21.07726034735092
 20
8.866411256809653
 30
0.0
 11
21.07729230577064
 21
8.866392805607432
 31
0.0
  0
LINE
  5
3F6
330
1F
100
AcDbEntity
  8
Visibile (ISO)_Num_Penna__1
  6
Continuous
100
AcDbLine
 10
21.07379230577095
 20
8.868413531549292
 30
0.0
 11
21.07546376807406
 21
8.867448512338766
 31
0.0
  0
LINE
  5
3F7
330
1F
100
AcDbEntity
  8
Visibile (ISO)_Num_Penna__1
  6
Continuous
100
AcDbLine
 10
21.0715423057712
 20
8.80509376750146
 30
0.0
 11
21.07154231469536
 21
8.867114493443736
 31
0.0
  0
LINE
  5
3F8
330
1F
100
AcDbEntity
  8
Visibile (ISO)_Num_Penna__1
  6
Continuous
100
AcDbLine
 10
21.099542305771
 20
8.800093767501806
 30
0.0
 11
21.0765423057712
 21
8.800093767501806
 31
0.0
  0
LINE
  5
3F9
330
1F
100
AcDbEntity
  8
Visibile (ISO)_Num_Penna__1
  6
Continuous
100
AcDbLine
 10
21.10454230577099
 20
8.92509376750182
 30
0.0
 11
21.10454230577099
 21
8.80509376750146
 31
0.0
  0
LINE
  5
3FA
330
1F
100
AcDbEntity
  8
Visibile (ISO)_Num_Penna__1
  6
Continuous
100
AcDbLine
 10
21.10454230577099
 20
8.92509376750182
 30
0.0
 11
21.10454230577099
 21
8.935093767501456
 31
0.0
  0
LINE
  5
3FB
330
1F
100
AcDbEntity
  8
Visibile (ISO)_Num_Penna__1
  6
Continuous
100
AcDbLine
 10
20.77704230577098
 20
9.064462411171787
 30
0.0
 11
20.77704230577098
 21
9.43572512261197
 31
0.0
  0
LINE
  5
3FC
330
1F
100
AcDbEntity
  8
Visibile (ISO)_Num_Penna__1
  6
Continuous
100
AcDbLine
 10
21.099542305771
 20
9.700093767501456
 30
0.0
 11
20.7495423057712
 21
9.700093767501456
 31
0.0
  0
LINE
  5
3FD
330
1F
100
AcDbEntity
  8
Visibile (ISO)_Num_Penna__1
  6
Continuous
100
AcDbLine
 10
21.10454230577099
 20
9.695093767501447
 30
0.0
 11
21.10454230577099
 21
9.480093767500974
 31
0.0
  0
LINE
  5
3FE
330
1F
100
AcDbEntity
  8
Visibile (ISO)_Num_Penna__1
  6
Continuous
100
AcDbLine
 10
21.10454230577099
 20
9.480093767500974
 30
0.0
 11
21.10454230577099
 21
9.470093767501436
 31
0.0
  0
LINE
  5
3FF
330
1F
100
AcDbEntity
  8
Visibile (ISO)_Num_Penna__1
  6
Continuous
100
AcDbLine
 10
21.10454230577099
 20
9.030093767501952
 30
0.0
 11
21.10454230577099
 21
9.470093767501436
 31
0.0
  0
LINE
  5
400
330
1F
100
AcDbEntity
  8
Visibile (ISO)_Num_Penna__1
  6
Continuous
100
AcDbLine
 10
21.10454230577099
 20
9.030093767501952
 30
0.0
 11
21.10454230577099
 21
9.020093767501847
 31
0.0
  0
LINE
  5
401
330
1F
100
AcDbEntity
  8
Visibile (ISO)_Num_Penna__1
  6
Continuous
100
AcDbLine
 10
21.10454230577099
 20
9.020093767501847
 30
0.0
 11
21.10454230577099
 21
8.935093767501456
 31
0.0
  0
LINE
  5
402
330
1F
100
AcDbEntity
  8
Visibile (ISO)_Num_Penna__1
  6
Continuous
100
AcDbLine
 10
21.07204230577108
 20
9.4357251238316
 30
0.0
 11
21.07204230577108
 21
9.064462412391419
 31
0.0
  0
LINE
  5
403
330
1F
100
AcDbEntity
  8
Visibile (ISO)_Num_Penna__1
  6
Continuous
100
AcDbLine
 10
20.75554230577106
 20
8.800093767501806
 30
0.0
 11
20.7495423057712
 21
8.800093767501806
 31
0.0
  0
LINE
  5
404
330
1F
100
AcDbEntity
  8
Visibile (ISO)_Num_Penna__1
  6
Continuous
100
AcDbLine
 10
21.06654230577121
 20
8.800093767501806
 30
0.0
 11
21.0765423057712
 21
8.800093767501806
 31
0.0
  0
LINE
  5
405
330
1F
100
AcDbEntity
  8
Visibile (ISO)_Num_Penna__1
  6
Continuous
100
AcDbLine
 10
20.95854230577115
 20
8.800093767501806
 30
0.0
 11
21.06654230577121
 21
8.800093767501806
 31
0.0
  0
LINE
  5
406
330
1F
100
AcDbEntity
  8
Visibile (ISO)_Num_Penna__1
  6
Continuous
100
AcDbLine
 10
20.94854230577102
 20
8.800093767501806
 30
0.0
 11
20.95854230577115
 21
8.800093767501806
 31
0.0
  0
LINE
  5
407
330
1F
100
AcDbEntity
  8
Visibile (ISO)_Num_Penna__1
  6
Continuous
100
AcDbLine
 10
20.94854230577102
 20
8.800093767501806
 30
0.0
 11
20.88354230577122
 21
8.800093767501806
 31
0.0
  0
LINE
  5
408
330
1F
100
AcDbEntity
  8
Visibile (ISO)_Num_Penna__1
  6
Continuous
100
AcDbLine
 10
20.88354230577122
 20
8.800093767501806
 30
0.0
 11
20.87354230577052
 21
8.800093767501806
 31
0.0
  0
LINE
  5
409
330
1F
100
AcDbEntity
  8
Visibile (ISO)_Num_Penna__1
  6
Continuous
100
AcDbLine
 10
20.87354230577052
 20
8.800093767501806
 30
0.0
 11
20.76554230577116
 21
8.800093767501806
 31
0.0
  0
LINE
  5
40A
330
1F
100
AcDbEntity
  8
Visibile (ISO)_Num_Penna__1
  6
Continuous
100
AcDbLine
 10
20.76554230577116
 20
8.800093767501806
 30
0.0
 11
20.75554230577106
 21
8.800093767501806
 31
0.0
  0
LINE
  5
40B
330
1F
100
AcDbEntity
  8
Visibile (ISO)_Num_Penna__1
  6
Continuous
100
AcDbLine
 10
20.76054230577103
 20
8.80509376750146
 30
0.0
 11
20.76054230208407
 21
8.925092403812158
 31
0.0
  0
LINE
  5
40C
330
1F
100
AcDbEntity
  8
Visibile (ISO)_Num_Penna__1
  6
Continuous
100
AcDbLine
 10
20.87854231558794
 20
8.901340990752345
 30
0.0
 11
20.87854231647356
 21
8.925093767503524
 31
0.0
  0
LINE
  5
40D
330
1F
100
AcDbEntity
  8
Visibile (ISO)_Num_Penna__1
  6
Continuous
100
AcDbLine
 10
20.88429230577046
 20
8.902062678589429
 30
0.0
 11
20.88729230577115
 21
8.903794729395796
 31
0.0
  0
LINE
  5
40E
330
1F
100
AcDbEntity
  8
Visibile (ISO)_Num_Penna__1
  6
Continuous
100
AcDbLine
 10
20.88954230577116
 20
8.902495691290113
 30
0.0
 11
20.88954230577116
 21
8.867691843713116
 31
0.0
  0
LINE
  5
40F
330
1F
100
AcDbEntity
  8
Visibile (ISO)_Num_Penna__1
  6
Continuous
100
AcDbLine
 10
20.88729230577073
 20
8.866392805607432
 30
0.0
 11
20.88429230576693
 21
8.868124856417324
 31
0.0
  0
LINE
  5
410
330
1F
100
AcDbEntity
  8
Visibile (ISO)_Num_Penna__1
  6
Continuous
100
AcDbLine
 10
20.88079230577097
 20
8.870145582357039
 30
0.0
 11
20.88191787885191
 21
8.869495732435877
 31
0.0
  0
LINE
  5
411
330
1F
100
AcDbEntity
  8
Visibile (ISO)_Num_Penna__1
  6
Continuous
100
AcDbLine
 10
20.87854230934803
 20
8.868846544251352
 30
0.0
 11
20.87854230577097
 21
8.80509376750146
 31
0.0
  0
LINE
  5
412
330
1F
100
AcDbEntity
  8
Visibile (ISO)_Num_Penna__1
  6
Continuous
100
AcDbLine
 10
20.95354230189816
 20
8.925093792281913
 30
0.0
 11
20.95354230577115
 21
8.80509376750146
 31
0.0
  0
LINE
  5
413
330
1F
100
AcDbEntity
  8
Visibile (ISO)_Num_Penna__1
  6
Continuous
100
AcDbLine
 10
21.07379230577121
 20
8.868413531549535
 30
0.0
 11
21.07370637772291
 21
8.868463142131162
 31
0.0
  0
LINE
  5
414
330
1F
100
AcDbEntity
  8
Visibile (ISO)_Num_Penna__1
  6
Continuous
100
AcDbLine
 10
21.099542305771
 20
9.025093767501942
 30
0.0
 11
20.7495423057712
 21
9.025093767501942
 31
0.0
  0
LINE
  5
415
330
1F
100
AcDbEntity
  8
Visibile (ISO)_Num_Penna__1
  6
Continuous
100
AcDbLine
 10
20.7495423057712
 20
9.475093767501419
 30
0.0
 11
21.099542305771
 21
9.475093767501419
 31
0.0
  0
LINE
  5
416
330
1F
100
AcDbEntity
  8
Visibile (ISO)_Num_Penna__1
  6
Continuous
100
AcDbLine
 10
20.87754230577102
 20
8.815093767501679
 30
0.0
 11
20.87754230577102
 21
8.915093767501828
 31
0.0
  0
LINE
  5
417
330
1F
100
AcDbEntity
  8
Visibile (ISO)_Num_Penna__1
  6
Continuous
100
AcDbLine
 10
20.819542305771
 20
8.915093767501828
 30
0.0
 11
20.87754230577102
 21
8.915093767501828
 31
0.0
  0
LINE
  5
418
330
1F
100
AcDbEntity
  8
Visibile (ISO)_Num_Penna__1
  6
Continuous
100
AcDbLine
 10
20.87754230577102
 20
8.815093767501679
 30
0.0
 11
20.819542305771
 21
8.815093767501679
 31
0.0
  0
LINE
  5
419
330
1F
100
AcDbEntity
  8
Visibile (ISO)_Num_Penna__1
  6
Continuous
100
AcDbLine
 10
20.88754230577098
 20
8.901885219386118
 30
0.0
 11
20.88754230577098
 21
8.868302315617354
 31
0.0
  0
LINE
  5
41A
330
1F
100
AcDbEntity
  8
Visibile (ISO)_Num_Penna__1
  6
Continuous
100
AcDbLine
 10
20.87754230577102
 20
8.897843767501939
 30
0.0
 11
20.88604230577116
 21
8.902751244789882
 31
0.0
  0
LINE
  5
41B
330
1F
100
AcDbEntity
  8
Visibile (ISO)_Num_Penna__1
  6
Continuous
100
AcDbLine
 10
20.88604230577116
 20
8.867436290213587
 30
0.0
 11
20.87754230577102
 21
8.872343767501519
 31
0.0
  0
LINE
  5
41C
330
1F
100
AcDbEntity
  8
Visibile (ISO)_Num_Penna__1
  6
Continuous
100
AcDbLine
 10
20.76154230577115
 20
8.915093767501828
 30
0.0
 11
20.819542305771
 21
8.915093767501828
 31
0.0
  0
LINE
  5
41D
330
1F
100
AcDbEntity
  8
Visibile (ISO)_Num_Penna__1
  6
Continuous
100
AcDbLine
 10
20.76154230577115
 20
8.815093767501679
 30
0.0
 11
20.76154230577115
 21
8.915093767501828
 31
0.0
  0
LINE
  5
41E
330
1F
100
AcDbEntity
  8
Visibile (ISO)_Num_Penna__1
  6
Continuous
100
AcDbLine
 10
20.819542305771
 20
8.815093767501679
 30
0.0
 11
20.76154230577115
 21
8.815093767501679
 31
0.0
  0
LINE
  5
41F
330
1F
100
AcDbEntity
  8
Visibile (ISO)_Num_Penna__1
  6
Continuous
100
AcDbLine
 10
21.06754230577107
 20
8.815093767501679
 30
0.0
 11
21.06754230577107
 21
8.915093767501828
 31
0.0
  0
LINE
  5
420
330
1F
100
AcDbEntity
  8
Visibile (ISO)_Num_Penna__1
  6
Continuous
100
AcDbLine
 10
21.00954230577116
 20
8.915093767501828
 30
0.0
 11
21.06754230577107
 21
8.915093767501828
 31
0.0
  0
LINE
  5
421
330
1F
100
AcDbEntity
  8
Visibile (ISO)_Num_Penna__1
  6
Continuous
100
AcDbLine
 10
21.00954230577116
 20
8.815093767501679
 30
0.0
 11
21.00954230577116
 21
8.915093767501828
 31
0.0
  0
LINE
  5
422
330
1F
100
AcDbEntity
  8
Visibile (ISO)_Num_Penna__1
  6
Continuous
100
AcDbLine
 10
21.06754230577107
 20
8.815093767501679
 30
0.0
 11
21.00954230577116
 21
8.815093767501679
 31
0.0
  0
LINE
  5
423
330
1F
100
AcDbEntity
  8
Visibile (ISO)_Num_Penna__1
  6
Continuous
100
AcDbLine
 10
21.07754230577115
 20
8.901885219386118
 30
0.0
 11
21.07754230577115
 21
8.868302315617354
 31
0.0
  0
LINE
  5
424
330
1F
100
AcDbEntity
  8
Visibile (ISO)_Num_Penna__1
  6
Continuous
100
AcDbLine
 10
21.06754230577107
 20
8.897843767501939
 30
0.0
 11
21.07604230577121
 21
8.902751244789882
 31
0.0
  0
LINE
  5
425
330
1F
100
AcDbEntity
  8
Visibile (ISO)_Num_Penna__1
  6
Continuous
100
AcDbLine
 10
21.07604230577121
 20
8.867436290213587
 30
0.0
 11
21.06754230577107
 21
8.872343767501519
 31
0.0
  0
LINE
  5
426
330
1F
100
AcDbEntity
  8
Visibile (ISO)_Num_Penna__1
  6
Continuous
100
AcDbLine
 10
21.00954230577116
 20
8.815093767501679
 30
0.0
 11
21.00954230577116
 21
8.915093767501828
 31
0.0
  0
LINE
  5
427
330
1F
100
AcDbEntity
  8
Visibile (ISO)_Num_Penna__1
  6
Continuous
100
AcDbLine
 10
20.95354230222094
 20
8.915093767501828
 30
0.0
 11
21.00954230577116
 21
8.915093767501828
 31
0.0
  0
LINE
  5
428
330
1F
100
AcDbEntity
  8
Visibile (ISO)_Num_Penna__1
  6
Continuous
100
AcDbLine
 10
21.00954230577116
 20
8.815093767501679
 30
0.0
 11
20.95354230544828
 21
8.815093767501679
 31
0.0
  0
LINE
  5
429
330
1F
100
AcDbEntity
  8
Visibile (ISO)_Num_Penna__1
  6
Continuous
100
AcDbLine
 10
20.88454230577116
 20
8.79509376750363
 30
0.0
 11
20.96454230577098
 21
8.79509376750363
 31
0.0
  0
CIRCLE
  5
42A
330
1F
100
AcDbEntity
  8
Visibile (ISO)_Num_Penna__171
  6
Continuous
100
AcDbCircle
 10
20.89504230577117
 20
9.151093767501931
 30
0.0
 40
0.0149999999999864
  0
CIRCLE
  5
42B
330
1F
100
AcDbEntity
  8
Visibile (ISO)_Num_Penna__1
  6
Continuous
100
AcDbCircle
 10
20.95004230577121
 20
9.099093767501782
 30
0.0
 40
0.0199999999999818
  0
ARC
  5
42C
330
1F
100
AcDbEntity
  8
Visibile (ISO)_Num_Penna__1
  6
Continuous
100
AcDbCircle
 10
20.787042305771
 20
9.460093767501886
 30
0.0
 40
0.0049999999998818
100
AcDbArc
 50
90.0
 51
180.0
  0
ARC
  5
42D
330
1F
100
AcDbEntity
  8
Visibile (ISO)_Num_Penna__1
  6
Continuous
100
AcDbCircle
 10
20.78704230577131
 20
9.040093767501943
 30
0.0
 40
0.0050000000001091
100
AcDbArc
 50
180.0
 51
270.0
  0
ARC
  5
42E
330
1F
100
AcDbEntity
  8
Visibile (ISO)_Num_Penna__1
  6
Continuous
100
AcDbCircle
 10
21.0620423057712
 20
9.040093767501943
 30
0.0
 40
0.0050000000001091
100
AcDbArc
 50
270.0
 51
0.0
  0
ARC
  5
42F
330
1F
100
AcDbEntity
  8
Visibile (ISO)_Num_Penna__1
  6
Continuous
100
AcDbCircle
 10
21.0620423057712
 20
9.460093767501774
 30
0.0
 40
0.0049999999998818
100
AcDbArc
 50
0.0
 51
90.0
  0
ARC
  5
430
330
1F
100
AcDbEntity
  8
Visibile (ISO)_Num_Penna__41
  6
Continuous
100
AcDbCircle
 10
20.85329664484661
 20
9.334560015741855
 30
0.0
 40
0.0696277107787994
100
AcDbArc
 50
48.41470531673696
 51
131.6326659132307
  0
ARC
  5
431
330
1F
100
AcDbEntity
  8
Visibile (ISO)_Num_Penna__41
  6
Continuous
100
AcDbCircle
 10
20.85330746082647
 20
9.334625620623883
 30
0.0
 40
0.0650958355023068
100
AcDbArc
 50
53.04426449764527
 51
127.0153106741365
  0
CIRCLE
  5
432
330
1F
100
AcDbEntity
  8
Visibile (ISO)_Num_Penna__41
  6
Continuous
100
AcDbCircle
 10
20.90504954831448
 20
9.385890984376116
 30
0.0
 40
0.002301450082968
  0
ARC
  5
433
330
1F
100
AcDbEntity
  8
Visibile (ISO)_Num_Penna__171
  6
Continuous
100
AcDbCircle
 10
20.89504230577117
 20
9.151093767501931
 30
0.0
 40
0.0149999999999864
100
AcDbArc
 50
180.0
 51
0.0
  0
ARC
  5
434
330
1F
100
AcDbEntity
  8
Visibile (ISO)_Num_Penna__1
  6
Continuous
100
AcDbCircle
 10
20.7495423057712
 20
8.935093767501456
 30
0.0
 40
0.0049999999999955
100
AcDbArc
 50
180.0
 51
270.0
  0
ARC
  5
435
330
1F
100
AcDbEntity
  8
Visibile (ISO)_Num_Penna__1
  6
Continuous
100
AcDbCircle
 10
21.07304230123503
 20
8.903073038940846
 30
0.0
 40
0.0014999999993961
100
AcDbArc
 50
179.9998998354974
 51
300.0002001372211
  0
ARC
  5
436
330
1F
100
AcDbEntity
  8
Visibile (ISO)_Num_Penna__1
  6
Continuous
100
AcDbCircle
 10
21.07804230577116
 20
8.902495691290242
 30
0.0
 40
0.0014999999999645
100
AcDbArc
 50
0.0
 51
120.00000000113
  0
ARC
  5
437
330
1F
100
AcDbEntity
  8
Visibile (ISO)_Num_Penna__1
  6
Continuous
100
AcDbCircle
 10
21.07804230577116
 20
8.867691843713116
 30
0.0
 40
0.0014999999999645
100
AcDbArc
 50
239.9999999891754
 51
0.0
  0
ARC
  5
438
330
1F
100
AcDbEntity
  8
Visibile (ISO)_Num_Penna__1
  6
Continuous
100
AcDbCircle
 10
21.07304230577114
 20
8.867114493443835
 30
0.0
 40
0.0014999999999645
100
AcDbArc
 50
59.9999999988699
 51
180.0
  0
ARC
  5
439
330
1F
100
AcDbEntity
  8
Visibile (ISO)_Num_Penna__1
  6
Continuous
100
AcDbCircle
 10
21.0765423057712
 20
8.80509376750146
 30
0.0
 40
0.0049999999999955
100
AcDbArc
 50
180.0
 51
270.0
  0
ARC
  5
43A
330
1F
100
AcDbEntity
  8
Visibile (ISO)_Num_Penna__1
  6
Continuous
100
AcDbCircle
 10
21.099542305771
 20
8.80509376750146
 30
0.0
 40
0.0049999999999955
100
AcDbArc
 50
270.0
 51
0.0
  0
ARC
  5
43B
330
1F
100
AcDbEntity
  8
Visibile (ISO)_Num_Penna__1
  6
Continuous
100
AcDbCircle
 10
21.099542305771
 20
8.935093767501456
 30
0.0
 40
0.0049999999999955
100
AcDbArc
 50
270.0
 51
0.0
  0
ARC
  5
43C
330
1F
100
AcDbEntity
  8
Visibile (ISO)_Num_Penna__1
  6
Continuous
100
AcDbCircle
 10
20.7495423057712
 20
9.030093767501952
 30
0.0
 40
0.0049999999999955
100
AcDbArc
 50
180.0
 51
270.0
  0
ARC
  5
43D
330
1F
100
AcDbEntity
  8
Visibile (ISO)_Num_Penna__1
  6
Continuous
100
AcDbCircle
 10
20.7495423057712
 20
9.470093767501436
 30
0.0
 40
0.0049999999999955
100
AcDbArc
 50
90.0
 51
180.0
  0
ARC
  5
43E
330
1F
100
AcDbEntity
  8
Visibile (ISO)_Num_Penna__1
  6
Continuous
100
AcDbCircle
 10
20.7495423057712
 20
9.695093767501447
 30
0.0
 40
0.0049999999999955
100
AcDbArc
 50
90.0
 51
180.0
  0
ARC
  5
43F
330
1F
100
AcDbEntity
  8
Visibile (ISO)_Num_Penna__1
  6
Continuous
100
AcDbCircle
 10
21.099542305771
 20
9.695093767501447
 30
0.0
 40
0.0049999999999955
100
AcDbArc
 50
0.0
 51
90.0
  0
CIRCLE
  5
440
330
1F
100
AcDbEntity
  8
Visibile (ISO)_Num_Penna__1
  6
Continuous
100
AcDbCircle
 10
20.95454230577102
 20
8.977690763002769
 30
0.0
 40
0.02049999999997
  0
CIRCLE
  5
441
330
1F
100
AcDbEntity
  8
Visibile (ISO)_Num_Penna__1
  6
Continuous
100
AcDbCircle
 10
20.89454230577118
 20
8.977690763002769
 30
0.0
 40
0.02049999999997
  0
CIRCLE
  5
442
330
1F
100
AcDbEntity
  8
Visibile (ISO)_Num_Penna__1
  6
Continuous
100
AcDbCircle
 10
20.95454230577102
 20
8.977690763002769
 30
0.0
 40
0.0175000000000409
  0
CIRCLE
  5
443
330
1F
100
AcDbEntity
  8
Visibile (ISO)_Num_Penna__1
  6
Continuous
100
AcDbCircle
 10
20.89454230577118
 20
8.977690763002769
 30
0.0
 40
0.0175000000000409
  0
CIRCLE
  5
444
330
1F
100
AcDbEntity
  8
Visibile (ISO)_Num_Penna__1
  6
Continuous
100
AcDbCircle
 10
20.95454230577102
 20
8.977690763002769
 30
0.0
 40
0.0159999999999627
  0
CIRCLE
  5
445
330
1F
100
AcDbEntity
  8
Visibile (ISO)_Num_Penna__1
  6
Continuous
100
AcDbCircle
 10
20.89454230577118
 20
8.977690763002769
 30
0.0
 40
0.0159999999999627
  0
ARC
  5
446
330
1F
100
AcDbEntity
  8
Visibile (ISO)_Num_Penna__1
  6
Continuous
100
AcDbCircle
 10
21.099542305771
 20
9.470093767501436
 30
0.0
 40
0.0049999999999955
100
AcDbArc
 50
0.0
 51
90.0
  0
ARC
  5
447
330
1F
100
AcDbEntity
  8
Visibile (ISO)_Num_Penna__1
  6
Continuous
100
AcDbCircle
 10
21.099542305771
 20
9.030093767501952
 30
0.0
 40
0.0049999999999955
100
AcDbArc
 50
270.0
 51
0.0
  0
ARC
  5
448
330
1F
100
AcDbEntity
  8
Visibile (ISO)_Num_Penna__1
  6
Continuous
100
AcDbCircle
 10
20.75554230577106
 20
8.80509376750146
 30
0.0
 40
0.0049999999999955
100
AcDbArc
 50
270.0
 51
0.0
  0
ARC
  5
449
330
1F
100
AcDbEntity
  8
Visibile (ISO)_Num_Penna__1
  6
Continuous
100
AcDbCircle
 10
20.7495423057712
 20
8.80509376750146
 30
0.0
 40
0.0049999999999955
100
AcDbArc
 50
180.0
 51
270.0
  0
ARC
  5
44A
330
1F
100
AcDbEntity
  8
Visibile (ISO)_Num_Penna__1
  6
Continuous
100
AcDbCircle
 10
20.88004230123505
 20
8.901340988133242
 30
0.0
 40
0.0014999999993961
100
AcDbArc
 50
179.9998998311528
 51
300.0002001372211
  0
ARC
  5
44B
330
1F
100
AcDbEntity
  8
Visibile (ISO)_Num_Penna__1
  6
Continuous
100
AcDbCircle
 10
20.88804230577097
 20
8.902495691290242
 30
0.0
 40
0.0014999999999645
100
AcDbArc
 50
0.0
 51
119.9999999973682
  0
ARC
  5
44C
330
1F
100
AcDbEntity
  8
Visibile (ISO)_Num_Penna__1
  6
Continuous
100
AcDbCircle
 10
20.88804230577097
 20
8.867691843713116
 30
0.0
 40
0.0014999999999645
100
AcDbArc
 50
239.9999999929374
 51
0.0
  0
ARC
  5
44D
330
1F
100
AcDbEntity
  8
Visibile (ISO)_Num_Penna__1
  6
Continuous
100
AcDbCircle
 10
20.88004230577116
 20
8.868846544251352
 30
0.0
 40
0.0014999999999645
100
AcDbArc
 50
60.00000000263177
 51
180.0
  0
ARC
  5
44E
330
1F
100
AcDbEntity
  8
Visibile (ISO)_Num_Penna__1
  6
Continuous
100
AcDbCircle
 10
20.88354230577122
 20
8.80509376750146
 30
0.0
 40
0.0049999999999955
100
AcDbArc
 50
180.0
 51
270.0
  0
ARC
  5
44F
330
1F
100
AcDbEntity
  8
Visibile (ISO)_Num_Penna__1
  6
Continuous
100
AcDbCircle
 10
20.94854230577102
 20
8.80509376750146
 30
0.0
 40
0.0049999999999955
100
AcDbArc
 50
270.0
 51
0.0
  0
ELLIPSE
  5
450
330
1F
100
AcDbEntity
  8
Visibile (ISO)_Num_Penna__1
  6
Continuous
100
AcDbEllipse
 10
20.87429219442242
 20
8.873898426538858
 30
0.0
 11
0.0065001095770019
 21
-0.0037528424648713
 31
0.0
210
0.0
220
0.0
230
0.9999999999999998
 40
0.0000100000031876
 41
6.1189201034617
 42
6.281679718497495
  0
ARC
  5
451
330
1F
100
AcDbEntity
  8
Visibile (ISO)_Num_Penna__1
  6
Continuous
100
AcDbCircle
 10
20.88654230577103
 20
8.868302315617354
 30
0.0
 40
0.0009999999999764
100
AcDbArc
 50
239.9999999996607
 51
0.0
  0
ARC
  5
452
330
1F
100
AcDbEntity
  8
Visibile (ISO)_Num_Penna__1
  6
Continuous
100
AcDbCircle
 10
20.88654230577103
 20
8.901885219386118
 30
0.0
 40
0.0009999999999764
100
AcDbArc
 50
0.0
 51
120.0000000003392
  0
ARC
  5
453
330
1F
100
AcDbEntity
  8
Visibile (ISO)_Num_Penna__1
  6
Continuous
100
AcDbCircle
 10
21.0765423057712
 20
8.868302315617354
 30
0.0
 40
0.0009999999999764
100
AcDbArc
 50
239.9999999996607
 51
0.0
  0
ARC
  5
454
330
1F
100
AcDbEntity
  8
Visibile (ISO)_Num_Penna__1
  6
Continuous
100
AcDbCircle
 10
21.0765423057712
 20
8.901885219386118
 30
0.0
 40
0.0009999999999764
100
AcDbArc
 50
0.0
 51
120.0000000003392
  0
ARC
  5
455
330
1F
100
AcDbEntity
  8
Visibile (ISO)_Num_Penna__1
  6
Continuous
100
AcDbCircle
 10
20.96454230577098
 20
8.815093767503627
 30
0.0
 40
0.0199999999999545
100
AcDbArc
 50
270.0
 51
311.4096221091128
  0
ARC
  5
456
330
1F
100
AcDbEntity
  8
Visibile (ISO)_Num_Penna__1
  6
Continuous
100
AcDbCircle
 10
20.88454230577116
 20
8.815093767503627
 30
0.0
 40
0.0199999999999545
100
AcDbArc
 50
228.5903778908872
 51
270.0
  0
SPLINE
  5
457
330
1F
100
AcDbEntity
  8
Visibile (ISO)_Num_Penna__1
  6
Continuous
100
AcDbSpline
210
0.0
220
0.0
230
1.0
 70
     8
 71
     3
 72
     8
 73
     4
 74
     0
 42
0.000000001
 43
0.0000000001
 40
0.0
 40
0.0
 40
0.0
 40
0.0
 40
1.0
 40
1.0
 40
1.0
 40
1.0
 10
20.9585422954589
 20
8.930093810646894
 30
0.0
 10
20.95801920168392
 20
8.930093816333851
 30
0.0
 10
20.95749604129233
 20
8.93001105105543
 30
0.0
 10
20.95699859879506
 20
8.929849582233146
 30
0.0
  0
SPLINE
  5
458
330
1F
100
AcDbEntity
  8
Visibile (ISO)_Num_Penna__1
  6
Continuous
100
AcDbSpline
210
0.0
220
0.0
230
1.0
 70
     8
 71
     3
 72
     8
 73
     4
 74
     0
 42
0.000000001
 43
0.0000000001
 40
1.0
 40
1.0
 40
1.0
 40
1.0
 40
2.0
 40
2.0
 40
2.0
 40
2.0
 10
20.95699859879506
 20
8.929849582233146
 30
0.0
 10
20.95661741075232
 20
8.929725849370129
 30
0.0
 10
20.95625132338512
 20
8.929555977195262
 30
0.0
 10
20.95591035609874
 20
8.929344973215961
 30
0.0
  0
SPLINE
  5
459
330
1F
100
AcDbEntity
  8
Visibile (ISO)_Num_Penna__1
  6
Continuous
100
AcDbSpline
210
0.0
220
0.0
230
1.0
 70
     8
 71
     3
 72
     8
 73
     4
 74
     0
 42
0.000000001
 43
0.0000000001
 40
0.0
 40
0.0
 40
0.0
 40
0.0
 40
1.0
 40
1.0
 40
1.0
 40
1.0
 10
20.95457254399025
 20
8.928133566893848
 30
0.0
 10
20.9545473605099
 20
8.928100689767004
 30
0.0
 10
20.95452258864654
 20
8.928067499315943
 30
0.0
 10
20.95449823791946
 20
8.928034004923262
 30
0.0
  0
SPLINE
  5
45A
330
1F
100
AcDbEntity
  8
Visibile (ISO)_Num_Penna__1
  6
Continuous
100
AcDbSpline
210
0.0
220
0.0
230
1.0
 70
     8
 71
     3
 72
     8
 73
     4
 74
     0
 42
0.000000001
 43
0.0000000001
 40
1.0
 40
1.0
 40
1.0
 40
1.0
 40
2.0
 40
2.0
 40
2.0
 40
2.0
 10
20.95449823791946
 20
8.928034004923262
 30
0.0
 10
20.95419009327341
 20
8.927610152366582
 30
0.0
 10
20.95394919902123
 20
8.927137775012512
 30
0.0
 10
20.95378725542187
 20
8.926639630327258
 30
0.0
  0
SPLINE
  5
45B
330
1F
100
AcDbEntity
  8
Visibile (ISO)_Num_Penna__1
  6
Continuous
100
AcDbSpline
210
0.0
220
0.0
230
1.0
 70
     8
 71
     3
 72
     8
 73
     4
 74
     0
 42
0.000000001
 43
0.0000000001
 40
2.0
 40
2.0
 40
2.0
 40
2.0
 40
3.0
 40
3.0
 40
3.0
 40
3.0
 10
20.95378725542187
 20
8.926639630327258
 30
0.0
 10
20.95377335916831
 20
8.926596884921082
 30
0.0
 10
20.95375989829458
 20
8.926554061143177
 30
0.0
 10
20.953747166531
 20
8.926510953926252
 30
0.0
  0
SPLINE
  5
45C
330
1F
100
AcDbEntity
  8
Visibile (ISO)_Num_Penna__1
  6
Continuous
100
AcDbSpline
210
0.0
220
0.0
230
1.0
 70
     8
 71
     3
 72
     8
 73
     4
 74
     0
 42
0.00001
 43
0.0000000001
 40
0.0
 40
0.0
 40
0.0
 40
0.0
 40
1.0
 40
1.0
 40
1.0
 40
1.0
 10
20.95359268407859
 20
8.925800971310875
 30
0.0
 10
20.95355921508247
 20
8.925566829699391
 30
0.0
 10
20.95354229156271
 20
8.925330320729699
 30
0.0
 10
20.95354228971974
 20
8.925093803964955
 30
0.0
  0
SPLINE
  5
45D
330
1F
100
AcDbEntity
  8
Visibile (ISO)_Num_Penna__1
  6
Continuous
100
AcDbSpline
210
0.0
220
0.0
230
1.0
 70
     8
 71
     3
 72
     8
 73
     4
 74
     0
 42
0.00001
 43
0.0000000001
 40
0.0
 40
0.0
 40
0.0
 40
0.0
 40
1.0
 40
1.0
 40
1.0
 40
1.0
 10
21.0715423035746
 20
8.925089081093005
 30
0.0
 10
21.07154250410187
 20
8.925303026373851
 30
0.0
 10
21.07152876826857
 20
8.925517808712925
 30
0.0
 10
21.07150128141811
 20
8.925731284574908
 30
0.0
  0
SPLINE
  5
45E
330
1F
100
AcDbEntity
  8
Visibile (ISO)_Num_Penna__1
  6
Continuous
100
AcDbSpline
210
0.0
220
0.0
230
1.0
 70
     8
 71
     3
 72
     8
 73
     4
 74
     0
 42
0.000000001
 43
0.0000000001
 40
0.0
 40
0.0
 40
0.0
 40
0.0
 40
1.0
 40
1.0
 40
1.0
 40
1.0
 10
21.07132584947945
 20
8.926548992297171
 30
0.0
 10
21.07131728994489
 20
8.926577150918005
 30
0.0
 10
21.0713084791854
 20
8.926605233641453
 30
0.0
 10
21.07129941767099
 20
8.926633235033847
 30
0.0
  0
SPLINE
  5
45F
330
1F
100
AcDbEntity
  8
Visibile (ISO)_Num_Penna__1
  6
Continuous
100
AcDbSpline
210
0.0
220
0.0
230
1.0
 70
     8
 71
     3
 72
     8
 73
     4
 74
     0
 42
0.000000001
 43
0.0000000001
 40
1.0
 40
1.0
 40
1.0
 40
1.0
 40
2.0
 40
2.0
 40
2.0
 40
2.0
 10
21.07129941767099
 20
8.926633235033847
 30
0.0
 10
21.07113788952543
 20
8.927132380399484
 30
0.0
 10
21.07089714652051
 20
8.927605954345835
 30
0.0
 10
21.07058869419336
 20
8.928030898879226
 30
0.0
  0
SPLINE
  5
460
330
1F
100
AcDbEntity
  8
Visibile (ISO)_Num_Penna__1
  6
Continuous
100
AcDbSpline
210
0.0
220
0.0
230
1.0
 70
     8
 71
     3
 72
     8
 73
     4
 74
     0
 42
0.000000001
 43
0.0000000001
 40
2.0
 40
2.0
 40
2.0
 40
2.0
 40
3.0
 40
3.0
 40
3.0
 40
3.0
 10
21.07058869419336
 20
8.928030898879226
 30
0.0
 10
21.07057205934751
 20
8.928053816154514
 30
0.0
 10
21.07055520607801
 20
8.928076586936979
 30
0.0
 10
21.07053817951754
 20
8.928099217363751
 30
0.0
  0
SPLINE
  5
461
330
1F
100
AcDbEntity
  8
Visibile (ISO)_Num_Penna__1
  6
Continuous
100
AcDbSpline
210
0.0
220
0.0
230
1.0
 70
     8
 71
     3
 72
     8
 73
     4
 74
     0
 42
0.000000001
 43
0.0000000001
 40
0.0
 40
0.0
 40
0.0
 40
0.0
 40
1.0
 40
1.0
 40
1.0
 40
1.0
 10
21.06913558378218
 20
8.929368615435803
 30
0.0
 10
21.06880563397774
 20
8.929568692289876
 30
0.0
 10
21.06845294266395
 20
8.929730370816059
 30
0.0
 10
21.06808626705313
 20
8.929849415177272
 30
0.0
  0
SPLINE
  5
462
330
1F
100
AcDbEntity
  8
Visibile (ISO)_Num_Penna__1
  6
Continuous
100
AcDbSpline
210
0.0
220
0.0
230
1.0
 70
     8
 71
     3
 72
     8
 73
     4
 74
     0
 42
0.000000001
 43
0.0000000001
 40
1.0
 40
1.0
 40
1.0
 40
1.0
 40
2.0
 40
2.0
 40
2.0
 40
2.0
 10
21.06808626705313
 20
8.929849415177272
 30
0.0
 10
21.06759656635191
 20
8.930008400682822
 30
0.0
 10
21.06708189861618
 20
8.930091138142413
 30
0.0
 10
21.06656703170344
 20
8.930093705846275
 30
0.0
  0
SPLINE
  5
463
330
1F
100
AcDbEntity
  8
Visibile (ISO)_Num_Penna__1
  6
Continuous
100
AcDbSpline
210
0.0
220
0.0
230
1.0
 70
     8
 71
     3
 72
     8
 73
     4
 74
     0
 42
0.000000001
 43
0.0000000001
 40
0.0
 40
0.0
 40
0.0
 40
0.0
 40
1.0
 40
1.0
 40
1.0
 40
1.0
 10
21.07379230577803
 20
8.901774003458056
 30
0.0
 10
21.07379240422591
 20
8.901774003458056
 30
0.0
 10
21.07384576414745
 20
8.901804867662038
 30
0.0
 10
21.07395154051781
 20
8.901865937677484
 30
0.0
  0
SPLINE
  5
464
330
1F
100
AcDbEntity
  8
Visibile (ISO)_Num_Penna__1
  6
Continuous
100
AcDbSpline
210
0.0
220
0.0
230
1.0
 70
     8
 71
     3
 72
     8
 73
     4
 74
     0
 42
0.000000001
 43
0.0000000001
 40
1.0
 40
1.0
 40
1.0
 40
1.0
 40
2.0
 40
2.0
 40
2.0
 40
2.0
 10
21.07395154051781
 20
8.901865937677484
 30
0.0
 10
21.07396715432637
 20
8.90187495231396
 30
0.0
 10
21.07398388231567
 20
8.901884609130886
 30
0.0
 10
21.07400174029945
 20
8.901894919381787
 30
0.0
  0
SPLINE
  5
465
330
1F
100
AcDbEntity
  8
Visibile (ISO)_Num_Penna__1
  6
Continuous
100
AcDbSpline
210
0.0
220
0.0
230
1.0
 70
     8
 71
     3
 72
     8
 73
     4
 74
     0
 42
0.000000001
 43
0.0000000001
 40
2.0
 40
2.0
 40
2.0
 40
2.0
 40
3.0
 40
3.0
 40
3.0
 40
3.0
 10
21.07400174029945
 20
8.901894919381787
 30
0.0
 10
21.07410486542747
 20
8.901954458351724
 30
0.0
 10
21.07424597840307
 20
8.902035931468956
 30
0.0
 10
21.07442195041713
 20
8.902137528958434
 30
0.0
  0
SPLINE
  5
466
330
1F
100
AcDbEntity
  8
Visibile (ISO)_Num_Penna__1
  6
Continuous
100
AcDbSpline
210
0.0
220
0.0
230
1.0
 70
    24
 71
     3
 72
     8
 73
     4
 74
     0
 42
0.000000001
 43
0.0000000001
 40
3.0
 40
3.0
 40
3.0
 40
3.0
 40
4.0
 40
4.0
 40
4.0
 40
4.0
 10
21.07442195041713
 20
8.902137528958434
 30
0.0
 10
21.07450153826986
 20
8.902183479026803
 30
0.0
 10
21.07458827161594
 20
8.902233554804977
 30
0.0
 10
21.07468179977093
 20
8.902287553334302
 30
0.0
  0
SPLINE
  5
467
330
1F
100
AcDbEntity
  8
Visibile (ISO)_Num_Penna__1
  6
Continuous
100
AcDbSpline
210
0.0
220
0.0
230
1.0
 70
    24
 71
     3
 72
     8
 73
     4
 74
     0
 42
0.000000001
 43
0.0000000001
 40
4.0
 40
4.0
 40
4.0
 40
4.0
 40
5.0
 40
5.0
 40
5.0
 40
5.0
 10
21.07468179977093
 20
8.902287553334302
 30
0.0
 10
21.07483087643175
 20
8.902373622822892
 30
0.0
 10
21.07499724973516
 20
8.902469678178363
 30
0.0
 10
21.07517919719857
 20
8.902574725593806
 30
0.0
  0
SPLINE
  5
468
330
1F
100
AcDbEntity
  8
Visibile (ISO)_Num_Penna__1
  6
Continuous
100
AcDbSpline
210
0.0
220
0.0
230
1.0
 70
     8
 71
     3
 72
     8
 73
     4
 74
     0
 42
0.000000001
 43
0.0000000001
 40
5.0
 40
5.0
 40
5.0
 40
5.0
 40
6.0
 40
6.0
 40
6.0
 40
6.0
 10
21.07517919719857
 20
8.902574725593806
 30
0.0
 10
21.0753649043325
 20
8.902681943656489
 30
0.0
 10
21.07556688283152
 20
8.90279855668291
 30
0.0
 10
21.07577924076637
 20
8.902921161612196
 30
0.0
  0
SPLINE
  5
469
330
1F
100
AcDbEntity
  8
Visibile (ISO)_Num_Penna__1
  6
Continuous
100
AcDbSpline
210
0.0
220
0.0
230
1.0
 70
     8
 71
     3
 72
     8
 73
     4
 74
     0
 42
0.000000001
 43
0.0000000001
 40
6.0
 40
6.0
 40
6.0
 40
6.0
 40
7.0
 40
7.0
 40
7.0
 40
7.0
 10
21.07577924076637
 20
8.902921161612196
 30
0.0
 10
21.07590547412133
 20
8.902994042484491
 30
0.0
 10
21.07603534400897
 20
8.903069019093436
 30
0.0
 10
21.07616763786143
 20
8.903145398897548
 30
0.0
  0
SPLINE
  5
46A
330
1F
100
AcDbEntity
  8
Visibile (ISO)_Num_Penna__1
  6
Continuous
100
AcDbSpline
210
0.0
220
0.0
230
1.0
 70
     8
 71
     3
 72
     8
 73
     4
 74
     0
 42
0.000000001
 43
0.0000000001
 40
7.0
 40
7.0
 40
7.0
 40
7.0
 40
8.0
 40
8.0
 40
8.0
 40
8.0
 10
21.07616763786143
 20
8.903145398897548
 30
0.0
 10
21.0764781463844
 20
8.903324670871368
 30
0.0
 10
21.07680191093436
 20
8.903511599814006
 30
0.0
 10
21.07714442262591
 20
8.903709349027849
 30
0.0
  0
SPLINE
  5
46B
330
1F
100
AcDbEntity
  8
Visibile (ISO)_Num_Penna__1
  6
Continuous
100
AcDbSpline
210
0.0
220
0.0
230
1.0
 70
     8
 71
     3
 72
     8
 73
     4
 74
     0
 42
0.000000001
 43
0.0000000001
 40
8.0
 40
8.0
 40
8.0
 40
8.0
 40
9.0
 40
9.0
 40
9.0
 40
9.0
 10
21.07714442262591
 20
8.903709349027849
 30
0.0
 10
21.07719333147543
 20
8.903737586565057
 30
0.0
 10
21.07724267563
 20
8.903766060713792
 30
0.0
 10
21.07729235936401
 20
8.903794745858931
 30
0.0
  0
SPLINE
  5
46C
330
1F
100
AcDbEntity
  8
Visibile (ISO)_Num_Penna__1
  6
Continuous
100
AcDbSpline
210
0.0
220
0.0
230
1.0
 70
     8
 71
     3
 72
     8
 73
     4
 74
     0
 42
0.000000001
 43
0.0000000001
 40
0.0
 40
0.0
 40
0.0
 40
0.0
 40
1.0
 40
1.0
 40
1.0
 40
1.0
 10
20.76554229545891
 20
8.930093810646326
 30
0.0
 10
20.76501900953417
 20
8.93009381633294
 30
0.0
 10
20.76449565945253
 20
8.930010990305959
 30
0.0
 10
20.76399805202695
 20
8.929849404709898
 30
0.0
  0
SPLINE
  5
46D
330
1F
100
AcDbEntity
  8
Visibile (ISO)_Num_Penna__1
  6
Continuous
100
AcDbSpline
210
0.0
220
0.0
230
1.0
 70
     8
 71
     3
 72
     8
 73
     4
 74
     0
 42
0.000000001
 43
0.0000000001
 40
1.0
 40
1.0
 40
1.0
 40
1.0
 40
2.0
 40
2.0
 40
2.0
 40
2.0
 10
20.76399805202695
 20
8.929849404709898
 30
0.0
 10
20.76361669128829
 20
8.929725567325277
 30
0.0
 10
20.76325045032138
 20
8.929555545480525
 30
0.0
 10
20.76290936788144
 20
8.92934436097596
 30
0.0
  0
SPLINE
  5
46E
330
1F
100
AcDbEntity
  8
Visibile (ISO)_Num_Penna__1
  6
Continuous
100
AcDbSpline
210
0.0
220
0.0
230
1.0
 70
     8
 71
     3
 72
     8
 73
     4
 74
     0
 42
0.000000001
 43
0.0000000001
 40
0.0
 40
0.0
 40
0.0
 40
0.0
 40
1.0
 40
1.0
 40
1.0
 40
1.0
 10
20.76157147898826
 20
8.928132313873447
 30
0.0
 10
20.76154630902596
 20
8.928099432366591
 30
0.0
 10
20.76152155063312
 20
8.92806623765216
 30
0.0
 10
20.76149721331535
 20
8.92803273909908
 30
0.0
  0
SPLINE
  5
46F
330
1F
100
AcDbEntity
  8
Visibile (ISO)_Num_Penna__1
  6
Continuous
100
AcDbSpline
210
0.0
220
0.0
230
1.0
 70
     8
 71
     3
 72
     8
 73
     4
 74
     0
 42
0.000000001
 43
0.0000000001
 40
1.0
 40
1.0
 40
1.0
 40
1.0
 40
2.0
 40
2.0
 40
2.0
 40
2.0
 10
20.76149721331535
 20
8.92803273909908
 30
0.0
 10
20.76118908970867
 20
8.927608629293672
 30
0.0
 10
20.76094832846639
 20
8.927135858368387
 30
0.0
 10
20.76078655996213
 20
8.926637489240649
 30
0.0
  0
SPLINE
  5
470
330
1F
100
AcDbEntity
  8
Visibile (ISO)_Num_Penna__1
  6
Continuous
100
AcDbSpline
210
0.0
220
0.0
230
1.0
 70
     8
 71
     3
 72
     8
 73
     4
 74
     0
 42
0.000000001
 43
0.0000000001
 40
2.0
 40
2.0
 40
2.0
 40
2.0
 40
3.0
 40
3.0
 40
3.0
 40
3.0
 10
20.76078655996213
 20
8.926637489240649
 30
0.0
 10
20.76077271382132
 20
8.92659483267289
 30
0.0
 10
20.76075952859807
 20
8.926551851736121
 30
0.0
 10
20.76074684507205
 20
8.926508835229467
 30
0.0
  0
SPLINE
  5
471
330
1F
100
AcDbEntity
  8
Visibile (ISO)_Num_Penna__1
  6
Continuous
100
AcDbSpline
210
0.0
220
0.0
230
1.0
 70
     8
 71
     3
 72
     8
 73
     4
 74
     0
 42
0.00001
 43
0.0000000001
 40
0.0
 40
0.0
 40
0.0
 40
0.0
 40
1.0
 40
1.0
 40
1.0
 40
1.0
 10
20.76059237985603
 20
8.925798632011831
 30
0.0
 10
20.76055903537977
 20
8.925564595033847
 30
0.0
 10
20.76054222689859
 20
8.925328352972201
 30
0.0
 10
20.76054229126257
 20
8.925092402789914
 30
0.0
  0
SPLINE
  5
472
330
1F
100
AcDbEntity
  8
Visibile (ISO)_Num_Penna__1
  6
Continuous
100
AcDbSpline
210
0.0
220
0.0
230
1.0
 70
     8
 71
     3
 72
     8
 73
     4
 74
     0
 42
0.000000001
 43
0.0000000001
 40
0.0
 40
0.0
 40
0.0
 40
0.0
 40
1.0
 40
1.0
 40
1.0
 40
1.0
 10
20.87854230577077
 20
8.925093818122832
 30
0.0
 10
20.87854230046415
 20
8.925617976010727
 30
0.0
 10
20.87845918053572
 20
8.926142108280943
 30
0.0
 10
20.8782970538733
 20
8.926640496465553
 30
0.0
  0
SPLINE
  5
473
330
1F
100
AcDbEntity
  8
Visibile (ISO)_Num_Penna__1
  6
Continuous
100
AcDbSpline
210
0.0
220
0.0
230
1.0
 70
     8
 71
     3
 72
     8
 73
     4
 74
     0
 42
0.000000001
 43
0.0000000001
 40
1.0
 40
1.0
 40
1.0
 40
1.0
 40
2.0
 40
2.0
 40
2.0
 40
2.0
 10
20.8782970538733
 20
8.926640496465553
 30
0.0
 10
20.87813492721096
 20
8.927138884650275
 30
0.0
 10
20.87789385713685
 20
8.927611510881773
 30
0.0
 10
20.87758530109994
 20
8.928035567754392
 30
0.0
  0
SPLINE
  5
474
330
1F
100
AcDbEntity
  8
Visibile (ISO)_Num_Penna__1
  6
Continuous
100
AcDbSpline
210
0.0
220
0.0
230
1.0
 70
     8
 71
     3
 72
     8
 73
     4
 74
     0
 42
0.000000001
 43
0.0000000001
 40
2.0
 40
2.0
 40
2.0
 40
2.0
 40
3.0
 40
3.0
 40
3.0
 40
3.0
 10
20.87758530109994
 20
8.928035567754392
 30
0.0
 10
20.87727674506499
 20
8.928459624623998
 30
0.0
 10
20.87690047947413
 20
8.928834991531175
 30
0.0
 10
20.87647657791436
 20
8.929142229794932
 30
0.0
  0
SPLINE
  5
475
330
1F
100
AcDbEntity
  8
Visibile (ISO)_Num_Penna__1
  6
Continuous
100
AcDbSpline
210
0.0
220
0.0
230
1.0
 70
     8
 71
     3
 72
     8
 73
     4
 74
     0
 42
0.000000001
 43
0.0000000001
 40
3.0
 40
3.0
 40
3.0
 40
3.0
 40
4.0
 40
4.0
 40
4.0
 40
4.0
 10
20.87647657791436
 20
8.929142229794932
 30
0.0
 10
20.87605267633703
 20
8.929449468071766
 30
0.0
 10
20.87558136375435
 20
8.929688893431375
 30
0.0
 10
20.87508439579892
 20
8.929850022193932
 30
0.0
  0
SPLINE
  5
476
330
1F
100
AcDbEntity
  8
Visibile (ISO)_Num_Penna__1
  6
Continuous
100
AcDbSpline
210
0.0
220
0.0
230
1.0
 70
     8
 71
     3
 72
     8
 73
     4
 74
     0
 42
0.000000001
 43
0.0000000001
 40
4.0
 40
4.0
 40
4.0
 40
4.0
 40
5.0
 40
5.0
 40
5.0
 40
5.0
 10
20.87508439579892
 20
8.929850022193932
 30
0.0
 10
20.87458742786649
 20
8.930011150948871
 30
0.0
 10
20.87406477401501
 20
8.930093764571664
 30
0.0
 10
20.87354233431228
 20
8.930093767560832
 30
0.0
  0
SPLINE
  5
477
330
1F
100
AcDbEntity
  8
Visibile (ISO)_Num_Penna__1
  6
Continuous
100
AcDbSpline
210
0.0
220
0.0
230
1.0
 70
     8
 71
     3
 72
     8
 73
     4
 74
     0
 42
0.000000001
 43
0.0000000001
 40
0.0
 40
0.0
 40
0.0
 40
0.0
 40
1.0
 40
1.0
 40
1.0
 40
1.0
 10
20.88079230577855
 20
8.900041952649983
 30
0.0
 10
20.88079240422644
 20
8.900041952649983
 30
0.0
 10
20.88084576414795
 20
8.900072816853935
 30
0.0
 10
20.880951540517
 20
8.900133886869525
 30
0.0
  0
SPLINE
  5
478
330
1F
100
AcDbEntity
  8
Visibile (ISO)_Num_Penna__1
  6
Continuous
100
AcDbSpline
210
0.0
220
0.0
230
1.0
 70
     8
 71
     3
 72
     8
 73
     4
 74
     0
 42
0.000000001
 43
0.0000000001
 40
1.0
 40
1.0
 40
1.0
 40
1.0
 40
2.0
 40
2.0
 40
2.0
 40
2.0
 10
20.880951540517
 20
8.900133886869525
 30
0.0
 10
20.8809671543311
 20
8.900142901509411
 30
0.0
 10
20.88098388176192
 20
8.900152559810292
 30
0.0
 10
20.88100173968186
 20
8.900162870186136
 30
0.0
  0
SPLINE
  5
479
330
1F
100
AcDbEntity
  8
Visibile (ISO)_Num_Penna__1
  6
Continuous
100
AcDbSpline
210
0.0
220
0.0
230
1.0
 70
     8
 71
     3
 72
     8
 73
     4
 74
     0
 42
0.000000001
 43
0.0000000001
 40
2.0
 40
2.0
 40
2.0
 40
2.0
 40
3.0
 40
3.0
 40
3.0
 40
3.0
 10
20.88100173968186
 20
8.900162870186136
 30
0.0
 10
20.88110486440417
 20
8.900222409856866
 30
0.0
 10
20.88124597839243
 20
8.900303880674073
 30
0.0
 10
20.88142195040248
 20
8.900405478164316
 30
0.0
  0
SPLINE
  5
47A
330
1F
100
AcDbEntity
  8
Visibile (ISO)_Num_Penna__1
  6
Continuous
100
AcDbSpline
210
0.0
220
0.0
230
1.0
 70
     8
 71
     3
 72
     8
 73
     4
 74
     0
 42
0.000000001
 43
0.0000000001
 40
3.0
 40
3.0
 40
3.0
 40
3.0
 40
4.0
 40
4.0
 40
4.0
 40
4.0
 10
20.88142195040248
 20
8.900405478164316
 30
0.0
 10
20.88150153828593
 20
8.90045142825147
 30
0.0
 10
20.88158827225166
 20
8.900501503749975
 30
0.0
 10
20.88168180045542
 20
8.900555502272936
 30
0.0
  0
SPLINE
  5
47B
330
1F
100
AcDbEntity
  8
Visibile (ISO)_Num_Penna__1
  6
Continuous
100
AcDbSpline
210
0.0
220
0.0
230
1.0
 70
     8
 71
     3
 72
     8
 73
     4
 74
     0
 42
0.000000001
 43
0.0000000001
 40
4.0
 40
4.0
 40
4.0
 40
4.0
 40
5.0
 40
5.0
 40
5.0
 40
5.0
 10
20.88168180045542
 20
8.900555502272936
 30
0.0
 10
20.8818308771346
 20
8.900641571716278
 30
0.0
 10
20.8819972496174
 20
8.900737627425087
 30
0.0
 10
20.88217919706776
 20
8.900842674845875
 30
0.0
  0
SPLINE
  5
47C
330
1F
100
AcDbEntity
  8
Visibile (ISO)_Num_Penna__1
  6
Continuous
100
AcDbSpline
210
0.0
220
0.0
230
1.0
 70
    24
 71
     3
 72
     8
 73
     4
 74
     0
 42
0.000000001
 43
0.0000000001
 40
5.0
 40
5.0
 40
5.0
 40
5.0
 40
6.0
 40
6.0
 40
6.0
 40
6.0
 10
20.88217919706776
 20
8.900842674845875
 30
0.0
 10
20.88236490421335
 20
8.900949892927656
 30
0.0
 10
20.88256688323372
 20
8.901066505707376
 30
0.0
 10
20.88277924120462
 20
8.901189110617337
 30
0.0
  0
SPLINE
  5
47D
330
1F
100
AcDbEntity
  8
Visibile (ISO)_Num_Penna__1
  6
Continuous
100
AcDbSpline
210
0.0
220
0.0
230
1.0
 70
     8
 71
     3
 72
     8
 73
     4
 74
     0
 42
0.000000001
 43
0.0000000001
 40
6.0
 40
6.0
 40
6.0
 40
6.0
 40
7.0
 40
7.0
 40
7.0
 40
7.0
 10
20.88277924120462
 20
8.901189110617337
 30
0.0
 10
20.88290547448517
 20
8.901261991422869
 30
0.0
 10
20.88303534121053
 20
8.901336968813437
 30
0.0
 10
20.88316763495479
 20
8.901413348594926
 30
0.0
  0
SPLINE
  5
47E
330
1F
100
AcDbEntity
  8
Visibile (ISO)_Num_Penna__1
  6
Continuous
100
AcDbSpline
210
0.0
220
0.0
230
1.0
 70
     8
 71
     3
 72
     8
 73
     4
 74
     0
 42
0.000000001
 43
0.0000000001
 40
7.0
 40
7.0
 40
7.0
 40
7.0
 40
8.0
 40
8.0
 40
8.0
 40
8.0
 10
20.88316763495479
 20
8.901413348594926
 30
0.0
 10
20.88347814345315
 20
8.901592620649379
 30
0.0
 10
20.88380191114993
 20
8.901779548877357
 30
0.0
 10
20.8841444228743
 20
8.901977298081533
 30
0.0
  0
SPLINE
  5
47F
330
1F
100
AcDbEntity
  8
Visibile (ISO)_Num_Penna__1
  6
Continuous
100
AcDbSpline
210
0.0
220
0.0
230
1.0
 70
     8
 71
     3
 72
     8
 73
     4
 74
     0
 42
0.000000001
 43
0.0000000001
 40
8.0
 40
8.0
 40
8.0
 40
8.0
 40
9.0
 40
9.0
 40
9.0
 40
9.0
 10
20.8841444228743
 20
8.901977298081533
 30
0.0
 10
20.88419333114499
 20
8.902005535279952
 30
0.0
 10
20.88424253186304
 20
8.902034119858996
 30
0.0
 10
20.88429221410732
 20
8.902062806245453
 30
0.0
  0
SPLINE
  5
480
330
1F
100
AcDbEntity
  8
Visibile (ISO)_Num_Penna__1
  6
Continuous
100
AcDbSpline
210
0.0
220
0.0
230
1.0
 70
     8
 71
     3
 72
     8
 73
     4
 74
     0
 42
0.000000001
 43
0.0000000001
 40
0.0
 40
0.0
 40
0.0
 40
0.0
 40
1.0
 40
1.0
 40
1.0
 40
1.0
 10
21.07144561510549
 20
8.900419146964395
 30
0.0
 10
21.0707865985151
 20
8.900038671632074
 30
0.0
 10
21.07000273959545
 20
8.899813368705281
 30
0.0
 10
21.06925400640037
 20
8.899665821400731
 30
0.0
  0
SPLINE
  5
481
330
1F
100
AcDbEntity
  8
Visibile (ISO)_Num_Penna__1
  6
Continuous
100
AcDbSpline
210
0.0
220
0.0
230
1.0
 70
     8
 71
     3
 72
     8
 73
     4
 74
     0
 42
0.000000001
 43
0.0000000001
 40
1.0
 40
1.0
 40
1.0
 40
1.0
 40
2.0
 40
2.0
 40
2.0
 40
2.0
 10
21.06925400640037
 20
8.899665821400731
 30
0.0
 10
21.06871144349296
 20
8.899558902547482
 30
0.0
 10
21.06806665669418
 20
8.899476025384416
 30
0.0
 10
21.06754241842111
 20
8.899418256042963
 30
0.0
  0
SPLINE
  5
482
330
1F
100
AcDbEntity
  8
Visibile (ISO)_Num_Penna__1
  6
Continuous
100
AcDbSpline
210
0.0
220
0.0
230
1.0
 70
     8
 71
     3
 72
     8
 73
     4
 74
     0
 42
0.000000001
 43
0.0000000001
 40
0.0
 40
0.0
 40
0.0
 40
0.0
 40
1.0
 40
1.0
 40
1.0
 40
1.0
 10
21.06754230591605
 20
8.870768258954285
 30
0.0
 10
21.06812803969393
 20
8.870705299611472
 30
0.0
 10
21.06870320735044
 20
8.870630251211421
 30
0.0
 10
21.06925393924644
 20
8.870521726160061
 30
0.0
  0
SPLINE
  5
483
330
1F
100
AcDbEntity
  8
Visibile (ISO)_Num_Penna__1
  6
Continuous
100
AcDbSpline
210
0.0
220
0.0
230
1.0
 70
     8
 71
     3
 72
     8
 73
     4
 74
     0
 42
0.000000001
 43
0.0000000001
 40
1.0
 40
1.0
 40
1.0
 40
1.0
 40
2.0
 40
2.0
 40
2.0
 40
2.0
 10
21.06925393924644
 20
8.870521726160061
 30
0.0
 10
21.07000281860496
 20
8.870374154952855
 30
0.0
 10
21.07078661134758
 20
8.870148871329432
 30
0.0
 10
21.0714456176535
 20
8.869768392469493
 30
0.0
  0
SPLINE
  5
484
330
1F
100
AcDbEntity
  8
Visibile (ISO)_Num_Penna__1
  6
Continuous
100
AcDbSpline
210
0.0
220
0.0
230
1.0
 70
     8
 71
     3
 72
     8
 73
     4
 74
     0
 42
0.00001
 43
0.0000000001
 40
0.0
 40
0.0
 40
0.0
 40
0.0
 40
1.0
 40
1.0
 40
1.0
 40
1.0
 10
20.87754230395962
 20
8.871910153916132
 30
0.0
 10
20.87785794401364
 20
8.871798014832393
 30
0.0
 10
20.87816323673138
 20
8.871663476622869
 30
0.0
 10
20.87844561768793
 20
8.871500443312354
 30
0.0
  0
SPLINE
  5
485
330
1F
100
AcDbEntity
  8
Visibile (ISO)_Num_Penna__1
  6
Continuous
100
AcDbSpline
210
0.0
220
0.0
230
1.0
 70
     8
 71
     3
 72
     8
 73
     4
 74
     0
 42
0.00001
 43
0.0000000001
 40
0.0
 40
0.0
 40
0.0
 40
0.0
 40
1.0
 40
1.0
 40
1.0
 40
1.0
 10
20.87844561510534
 20
8.898687096156891
 30
0.0
 10
20.87816323633589
 20
8.898524068157966
 30
0.0
 10
20.87785793663667
 20
8.898389529755945
 30
0.0
 10
20.87754230068057
 20
8.898277390588988
 30
0.0
  0
SPLINE
  5
486
330
1F
100
AcDbEntity
  8
Visibile (ISO)_Num_Penna__1
  6
Continuous
100
AcDbSpline
210
0.0
220
0.0
230
1.0
 70
     8
 71
     3
 72
     8
 73
     4
 74
     0
 42
0.000000001
 43
0.0000000001
 40
0.0
 40
0.0
 40
0.0
 40
0.0
 40
1.0
 40
1.0
 40
1.0
 40
1.0
 10
21.07242438118939
 20
8.900859912358328
 30
0.0
 10
21.07242534893942
 20
8.900859912358328
 30
0.0
 10
21.07242623267021
 20
8.900860521446929
 30
0.0
 10
21.07242707062906
 20
8.900861005242743
 30
0.0
  0
SPLINE
  5
487
330
1F
100
AcDbEntity
  8
Visibile (ISO)_Num_Penna__1
  6
Continuous
100
AcDbSpline
210
0.0
220
0.0
230
1.0
 70
     8
 71
     3
 72
     8
 73
     4
 74
     0
 42
0.000000001
 43
0.0000000001
 40
1.0
 40
1.0
 40
1.0
 40
1.0
 40
2.0
 40
2.0
 40
2.0
 40
2.0
 10
21.07242707062906
 20
8.900861005242743
 30
0.0
 10
21.07270842378415
 20
8.901023444562381
 30
0.0
 10
21.07289124963859
 20
8.901253778453677
 30
0.0
 10
21.07310847004456
 20
8.901379190713782
 30
0.0
  0
SPLINE
  5
488
330
1F
100
AcDbEntity
  8
Visibile (ISO)_Num_Penna__1
  6
Continuous
100
AcDbSpline
210
0.0
220
0.0
230
1.0
 70
    24
 71
     3
 72
     8
 73
     4
 74
     0
 42
0.000000001
 43
0.0000000001
 40
2.0
 40
2.0
 40
2.0
 40
2.0
 40
3.0
 40
3.0
 40
3.0
 40
3.0
 10
21.07310847004456
 20
8.901379190713782
 30
0.0
 10
21.07328108866582
 20
8.901478852121726
 30
0.0
 10
21.07342514597224
 20
8.901562023632891
 30
0.0
 10
21.07353556954345
 20
8.901625776707533
 30
0.0
  0
SPLINE
  5
489
330
1F
100
AcDbEntity
  8
Visibile (ISO)_Num_Penna__1
  6
Continuous
100
AcDbSpline
210
0.0
220
0.0
230
1.0
 70
     8
 71
     3
 72
     8
 73
     4
 74
     0
 42
0.00001
 43
0.0000000001
 40
0.0
 40
0.0
 40
0.0
 40
0.0
 40
1.0
 40
1.0
 40
1.0
 40
1.0
 10
21.07377163007627
 20
8.901762071118582
 30
0.0
 10
21.07378533976598
 20
8.901769986603994
 30
0.0
 10
21.07379229682945
 20
8.901774006840382
 30
0.0
 10
21.07379230232877
 20
8.901774006840382
 30
0.0
  0
SPLINE
  5
48A
330
1F
100
AcDbEntity
  8
Visibile (ISO)_Num_Penna__1
  6
Continuous
100
AcDbSpline
210
0.0
220
0.0
230
1.0
 70
     8
 71
     3
 72
     8
 73
     4
 74
     0
 42
0.000000001
 43
0.0000000001
 40
0.0
 40
0.0
 40
0.0
 40
0.0
 40
1.0
 40
1.0
 40
1.0
 40
1.0
 10
20.87932474154539
 20
8.899166165476373
 30
0.0
 10
20.87932560971106
 20
8.899166165476373
 30
0.0
 10
20.87932634352822
 20
8.899166845769967
 30
0.0
 10
20.87932709504369
 20
8.899167279657376
 30
0.0
  0
SPLINE
  5
48B
330
1F
100
AcDbEntity
  8
Visibile (ISO)_Num_Penna__1
  6
Continuous
100
AcDbSpline
210
0.0
220
0.0
230
1.0
 70
     8
 71
     3
 72
     8
 73
     4
 74
     0
 42
0.000000001
 43
0.0000000001
 40
1.0
 40
1.0
 40
1.0
 40
1.0
 40
2.0
 40
2.0
 40
2.0
 40
2.0
 10
20.87932709504369
 20
8.899167279657376
 30
0.0
 10
20.87960844819898
 20
8.899329718976558
 30
0.0
 10
20.87989124964062
 20
8.899521727644469
 30
0.0
 10
20.88010847004785
 20
8.899647139903436
 30
0.0
  0
SPLINE
  5
48C
330
1F
100
AcDbEntity
  8
Visibile (ISO)_Num_Penna__1
  6
Continuous
100
AcDbSpline
210
0.0
220
0.0
230
1.0
 70
    24
 71
     3
 72
     8
 73
     4
 74
     0
 42
0.000000001
 43
0.0000000001
 40
2.0
 40
2.0
 40
2.0
 40
2.0
 40
3.0
 40
3.0
 40
3.0
 40
3.0
 10
20.88010847004785
 20
8.899647139903436
 30
0.0
 10
20.88028108866752
 20
8.899746801308879
 30
0.0
 10
20.88042514591089
 20
8.899829972825955
 30
0.0
 10
20.88053556947546
 20
8.899893725897527
 30
0.0
  0
SPLINE
  5
48D
330
1F
100
AcDbEntity
  8
Visibile (ISO)_Num_Penna__1
  6
Continuous
100
AcDbSpline
210
0.0
220
0.0
230
1.0
 70
     8
 71
     3
 72
     8
 73
     4
 74
     0
 42
0.00001
 43
0.0000000001
 40
0.0
 40
0.0
 40
0.0
 40
0.0
 40
1.0
 40
1.0
 40
1.0
 40
1.0
 10
20.88077163182959
 20
8.900030019021755
 30
0.0
 10
20.88078534156597
 20
8.900037934441229
 30
0.0
 10
20.88079229872741
 20
8.900041954536161
 30
0.0
 10
20.88079230422096
 20
8.900041954536161
 30
0.0
  0
SPLINE
  5
48E
330
1F
100
AcDbEntity
  8
Visibile (ISO)_Num_Penna__1
  6
Continuous
100
AcDbSpline
210
0.0
220
0.0
230
1.0
 70
     8
 71
     3
 72
     8
 73
     4
 74
     0
 42
0.000000001
 43
0.0000000001
 40
0.0
 40
0.0
 40
0.0
 40
0.0
 40
1.0
 40
1.0
 40
1.0
 40
1.0
 10
20.95591032283892
 20
8.929345013690976
 30
0.0
 10
20.95545128589131
 20
8.929060816734931
 30
0.0
 10
20.95503359422659
 20
8.928696653383893
 30
0.0
 10
20.95468948710209
 20
8.928280632432231
 30
0.0
  0
SPLINE
  5
48F
330
1F
100
AcDbEntity
  8
Visibile (ISO)_Num_Penna__1
  6
Continuous
100
AcDbSpline
210
0.0
220
0.0
230
1.0
 70
     8
 71
     3
 72
     8
 73
     4
 74
     0
 42
0.000000001
 43
0.0000000001
 40
1.0
 40
1.0
 40
1.0
 40
1.0
 40
2.0
 40
2.0
 40
2.0
 40
2.0
 10
20.95468948710209
 20
8.928280632432231
 30
0.0
 10
20.95464957401774
 20
8.928232378042139
 30
0.0
 10
20.95461056051144
 20
8.928183365274435
 30
0.0
 10
20.95457248832147
 20
8.928133645572984
 30
0.0
  0
SPLINE
  5
490
330
1F
100
AcDbEntity
  8
Visibile (ISO)_Num_Penna__1
  6
Continuous
100
AcDbSpline
210
0.0
220
0.0
230
1.0
 70
     8
 71
     3
 72
     8
 73
     4
 74
     0
 42
0.00001
 43
0.0000000001
 40
0.0
 40
0.0
 40
0.0
 40
0.0
 40
1.0
 40
1.0
 40
1.0
 40
1.0
 10
20.95374730284533
 20
8.926510854327261
 30
0.0
 10
20.95367867564107
 20
8.926278636234457
 30
0.0
 10
20.9536268261634
 20
8.926040796263349
 30
0.0
 10
20.95359257196392
 20
8.925801084795351
 30
0.0
  0
SPLINE
  5
491
330
1F
100
AcDbEntity
  8
Visibile (ISO)_Num_Penna__1
  6
Continuous
100
AcDbSpline
210
0.0
220
0.0
230
1.0
 70
     8
 71
     3
 72
     8
 73
     4
 74
     0
 42
0.00001
 43
0.0000000001
 40
0.0
 40
0.0
 40
0.0
 40
0.0
 40
1.0
 40
1.0
 40
1.0
 40
1.0
 10
21.07150153827584
 20
8.925731301702851
 30
0.0
 10
21.07146599205245
 20
8.926007814897275
 30
0.0
 10
21.07140703429838
 20
8.926282296364432
 30
0.0
 10
21.071325895624
 20
8.926549016430952
 30
0.0
  0
SPLINE
  5
492
330
1F
100
AcDbEntity
  8
Visibile (ISO)_Num_Penna__1
  6
Continuous
100
AcDbSpline
210
0.0
220
0.0
230
1.0
 70
     8
 71
     3
 72
     8
 73
     4
 74
     0
 42
0.000000001
 43
0.0000000001
 40
0.0
 40
0.0
 40
0.0
 40
0.0
 40
1.0
 40
1.0
 40
1.0
 40
1.0
 10
21.07053825624402
 20
8.928099267017953
 30
0.0
 10
21.07021357565699
 20
8.928530954403299
 30
0.0
 10
21.06981291481017
 20
8.928914192774527
 30
0.0
 10
21.06936722762839
 20
8.929219371846556
 30
0.0
  0
SPLINE
  5
493
330
1F
100
AcDbEntity
  8
Visibile (ISO)_Num_Penna__1
  6
Continuous
100
AcDbSpline
210
0.0
220
0.0
230
1.0
 70
     8
 71
     3
 72
     8
 73
     4
 74
     0
 42
0.000000001
 43
0.0000000001
 40
1.0
 40
1.0
 40
1.0
 40
1.0
 40
2.0
 40
2.0
 40
2.0
 40
2.0
 10
21.06936722762839
 20
8.929219371846556
 30
0.0
 10
21.06929142781988
 20
8.92927127487701
 30
0.0
 10
21.06921416755652
 20
8.929321107175269
 30
0.0
 10
21.06913562306602
 20
8.929368754800863
 30
0.0
  0
SPLINE
  5
494
330
1F
100
AcDbEntity
  8
Visibile (ISO)_Num_Penna__1
  6
Continuous
100
AcDbSpline
210
0.0
220
0.0
230
1.0
 70
    24
 71
     3
 72
     8
 73
     4
 74
     0
 42
0.000000001
 43
0.0000000001
 40
0.0
 40
0.0
 40
0.0
 40
0.0
 40
1.0
 40
1.0
 40
1.0
 40
1.0
 10
21.07546376807406
 20
8.867448512338796
 30
0.0
 10
21.07581191143041
 20
8.867247511678556
 30
0.0
 10
21.07619427758178
 20
8.867026752477952
 30
0.0
 10
21.07658220211598
 20
8.866802784143944
 30
0.0
  0
SPLINE
  5
495
330
1F
100
AcDbEntity
  8
Visibile (ISO)_Num_Penna__1
  6
Continuous
100
AcDbSpline
210
0.0
220
0.0
230
1.0
 70
    24
 71
     3
 72
     8
 73
     4
 74
     0
 42
0.000000001
 43
0.0000000001
 40
1.0
 40
1.0
 40
1.0
 40
1.0
 40
2.0
 40
2.0
 40
2.0
 40
2.0
 10
21.07658220211598
 20
8.866802784143944
 30
0.0
 10
21.07680565236504
 20
8.866673775082517
 30
0.0
 10
21.07703333540607
 20
8.86654232221781
 30
0.0
 10
21.07726034732806
 20
8.866411256825585
 30
0.0
  0
SPLINE
  5
496
330
1F
100
AcDbEntity
  8
Visibile (ISO)_Num_Penna__1
  6
Continuous
100
AcDbSpline
210
0.0
220
0.0
230
1.0
 70
     8
 71
     3
 72
     8
 73
     4
 74
     0
 42
0.000000001
 43
0.0000000001
 40
0.0
 40
0.0
 40
0.0
 40
0.0
 40
1.0
 40
1.0
 40
1.0
 40
1.0
 10
20.76290933445247
 20
8.929344401606273
 30
0.0
 10
20.76245036368314
 20
8.929060097978322
 30
0.0
 10
20.76203275677429
 20
8.928695837603411
 30
0.0
 10
20.76168874642858
 20
8.928279736754006
 30
0.0
  0
SPLINE
  5
497
330
1F
100
AcDbEntity
  8
Visibile (ISO)_Num_Penna__1
  6
Continuous
100
AcDbSpline
210
0.0
220
0.0
230
1.0
 70
     8
 71
     3
 72
     8
 73
     4
 74
     0
 42
0.000000001
 43
0.0000000001
 40
1.0
 40
1.0
 40
1.0
 40
1.0
 40
2.0
 40
2.0
 40
2.0
 40
2.0
 10
20.76168874642858
 20
8.928279736754006
 30
0.0
 10
20.7616487278635
 20
8.928231331933856
 30
0.0
 10
20.76160961505636
 20
8.928182163934934
 30
0.0
 10
20.76157144866497
 20
8.928132285687864
 30
0.0
  0
SPLINE
  5
498
330
1F
100
AcDbEntity
  8
Visibile (ISO)_Num_Penna__1
  6
Continuous
100
AcDbSpline
210
0.0
220
0.0
230
1.0
 70
     8
 71
     3
 72
     8
 73
     4
 74
     0
 42
0.00001
 43
0.0000000001
 40
0.0
 40
0.0
 40
0.0
 40
0.0
 40
1.0
 40
1.0
 40
1.0
 40
1.0
 10
20.76074675039288
 20
8.926508983617962
 30
0.0
 10
20.76067817352552
 20
8.926276602348025
 30
0.0
 10
20.76062639629512
 20
8.926038598760328
 30
0.0
 10
20.76059223607046
 20
8.925798730208271
 30
0.0
  0
SPLINE
  5
499
330
1F
100
AcDbEntity
  8
Visibile (ISO)_Num_Penna__1
  6
Continuous
100
AcDbSpline
210
0.0
220
0.0
230
1.0
 70
    24
 71
     3
 72
     8
 73
     4
 74
     0
 42
0.000000001
 43
0.0000000001
 40
0.0
 40
0.0
 40
0.0
 40
0.0
 40
1.0
 40
1.0
 40
1.0
 40
1.0
 10
20.88191787885191
 20
8.869495732435892
 30
0.0
 10
20.88220278183896
 20
8.869331243619397
 30
0.0
 10
20.88252822305898
 20
8.869143350043486
 30
0.0
 10
20.88286859400387
 20
8.868946836786475
 30
0.0
  0
SPLINE
  5
49A
330
1F
100
AcDbEntity
  8
Visibile (ISO)_Num_Penna__1
  6
Continuous
100
AcDbSpline
210
0.0
220
0.0
230
1.0
 70
    24
 71
     3
 72
     8
 73
     4
 74
     0
 42
0.000000001
 43
0.0000000001
 40
1.0
 40
1.0
 40
1.0
 40
1.0
 40
2.0
 40
2.0
 40
2.0
 40
2.0
 10
20.88286859400387
 20
8.868946836786475
 30
0.0
 10
20.88323086730392
 20
8.868737678198982
 30
0.0
 10
20.88361855281605
 20
8.868513847859617
 30
0.0
 10
20.88400584998965
 20
8.868290241728914
 30
0.0
  0
SPLINE
  5
49B
330
1F
100
AcDbEntity
  8
Visibile (ISO)_Num_Penna__1
  6
Continuous
100
AcDbSpline
210
0.0
220
0.0
230
1.0
 70
    24
 71
     3
 72
     8
 73
     4
 74
     0
 42
0.000000001
 43
0.0000000001
 40
2.0
 40
2.0
 40
2.0
 40
2.0
 40
3.0
 40
3.0
 40
3.0
 40
3.0
 10
20.88400584998965
 20
8.868290241728914
 30
0.0
 10
20.88410115478191
 20
8.868235217480901
 30
0.0
 10
20.88419676103044
 20
8.868180019115015
 30
0.0
 10
20.88429230653986
 20
8.868124855891094
 30
0.0
  0
SPLINE
  5
49C
330
1F
100
AcDbEntity
  8
Visibile (ISO)_Num_Penna__1
  6
Continuous
100
AcDbSpline
210
0.0
220
0.0
230
1.0
 70
     8
 71
     3
 72
     8
 73
     4
 74
     0
 42
0.000000001
 43
0.0000000001
 40
0.0
 40
0.0
 40
0.0
 40
0.0
 40
1.0
 40
1.0
 40
1.0
 40
1.0
 10
21.07144561765986
 20
8.869768392463926
 30
0.0
 10
21.07200434422157
 20
8.869445810019328
 30
0.0
 10
21.07250561228312
 20
8.869156404382152
 30
0.0
 10
21.07289273522628
 20
8.868932898864613
 30
0.0
  0
SPLINE
  5
49D
330
1F
100
AcDbEntity
  8
Visibile (ISO)_Num_Penna__1
  6
Continuous
100
AcDbSpline
210
0.0
220
0.0
230
1.0
 70
     8
 71
     3
 72
     8
 73
     4
 74
     0
 42
0.000000001
 43
0.0000000001
 40
1.0
 40
1.0
 40
1.0
 40
1.0
 40
2.0
 40
2.0
 40
2.0
 40
2.0
 10
21.07289273522628
 20
8.868932898864613
 30
0.0
 10
21.07325485055685
 20
8.868723831497616
 30
0.0
 10
21.07352664422004
 20
8.868566910984784
 30
0.0
 10
21.07366953183987
 20
8.868484415104942
 30
0.0
  0
SPLINE
  5
49E
330
1F
100
AcDbEntity
  8
Visibile (ISO)_Num_Penna__1
  6
Continuous
100
AcDbSpline
210
0.0
220
0.0
230
1.0
 70
     8
 71
     3
 72
     8
 73
     4
 74
     0
 42
0.000000001
 43
0.0000000001
 40
2.0
 40
2.0
 40
2.0
 40
2.0
 40
3.0
 40
3.0
 40
3.0
 40
3.0
 10
21.07366953183987
 20
8.868484415104942
 30
0.0
 10
21.07368287929617
 20
8.868476708977482
 30
0.0
 10
21.0736951720294
 20
8.868469637796465
 30
0.0
 10
21.07370638131582
 20
8.868463166752576
 30
0.0
  0
SPLINE
  5
49F
330
1F
100
AcDbEntity
  8
Visibile (ISO)_Num_Penna__1
  6
Continuous
100
AcDbSpline
210
0.0
220
0.0
230
1.0
 70
     8
 71
     3
 72
     8
 73
     4
 74
     0
 42
0.00001
 43
0.0000000001
 40
0.0
 40
0.0
 40
0.0
 40
0.0
 40
1.0
 40
1.0
 40
1.0
 40
1.0
 10
21.07234511741314
 20
8.900938482938386
 30
0.0
 10
21.07207281335232
 20
8.900781266935839
 30
0.0
 10
21.0717693843379
 20
8.90060606883344
 30
0.0
 10
21.07144559404455
 20
8.900419134805588
 30
0.0
  0
SPLINE
  5
4A0
330
1F
100
AcDbEntity
  8
Visibile (ISO)_Num_Penna__1
  6
Continuous
100
AcDbSpline
210
0.0
220
0.0
230
1.0
 70
     8
 71
     3
 72
     8
 73
     4
 74
     0
 42
0.00001
 43
0.0000000001
 40
0.0
 40
0.0
 40
0.0
 40
0.0
 40
1.0
 40
1.0
 40
1.0
 40
1.0
 10
21.07377145609394
 20
8.901761850857043
 30
0.0
 10
21.07373433985609
 20
8.90174041521584
 30
0.0
 10
21.07365569695358
 20
8.901695123982676
 30
0.0
 10
21.07353560817785
 20
8.901625816135831
 30
0.0
  0
SPLINE
  5
4A1
330
1F
100
AcDbEntity
  8
Visibile (ISO)_Num_Penna__1
  6
Continuous
100
AcDbSpline
210
0.0
220
0.0
230
1.0
 70
     8
 71
     3
 72
     8
 73
     4
 74
     0
 42
0.00001
 43
0.0000000001
 40
0.0
 40
0.0
 40
0.0
 40
0.0
 40
1.0
 40
1.0
 40
1.0
 40
1.0
 10
20.87934511742091
 20
8.899206432135001
 30
0.0
 10
20.87907281335796
 20
8.899049216131286
 30
0.0
 10
20.87876938434093
 20
8.898874018026956
 30
0.0
 10
20.87844559404439
 20
8.898687083997515
 30
0.0
  0
SPLINE
  5
4A2
330
1F
100
AcDbEntity
  8
Visibile (ISO)_Num_Penna__1
  6
Continuous
100
AcDbSpline
210
0.0
220
0.0
230
1.0
 70
     8
 71
     3
 72
     8
 73
     4
 74
     0
 42
0.00001
 43
0.0000000001
 40
0.0
 40
0.0
 40
0.0
 40
0.0
 40
1.0
 40
1.0
 40
1.0
 40
1.0
 10
20.88077145609322
 20
8.900029800048969
 30
0.0
 10
20.88073433985574
 20
8.900008364407879
 30
0.0
 10
20.88065569695686
 20
8.899963073176877
 30
0.0
 10
20.88053560818687
 20
8.899893765332649
 30
0.0
  0
SPLINE
  5
4A3
330
1F
100
AcDbEntity
  8
Visibile (ISO)_Num_Penna__1
  6
Continuous
100
AcDbSpline
210
0.0
220
0.0
230
1.0
 70
     8
 71
     3
 72
     8
 73
     4
 74
     0
 42
0.000000001
 43
0.0000000001
 40
0.0
 40
0.0
 40
0.0
 40
0.0
 40
1.0
 40
1.0
 40
1.0
 40
1.0
 10
20.87844561765962
 20
8.871500443271656
 30
0.0
 10
20.8790043442217
 20
8.871177860826719
 30
0.0
 10
20.87950561228371
 20
8.870888455189998
 30
0.0
 10
20.87989273522638
 20
8.8706649496728
 30
0.0
  0
SPLINE
  5
4A4
330
1F
100
AcDbEntity
  8
Visibile (ISO)_Num_Penna__1
  6
Continuous
100
AcDbSpline
210
0.0
220
0.0
230
1.0
 70
     8
 71
     3
 72
     8
 73
     4
 74
     0
 42
0.000000001
 43
0.0000000001
 40
1.0
 40
1.0
 40
1.0
 40
1.0
 40
2.0
 40
2.0
 40
2.0
 40
2.0
 10
20.87989273522638
 20
8.8706649496728
 30
0.0
 10
20.88025485055397
 20
8.870455882307737
 30
0.0
 10
20.88052664421014
 20
8.870298961809337
 30
0.0
 10
20.880669531824
 20
8.870216465935184
 30
0.0
  0
SPLINE
  5
4A5
330
1F
100
AcDbEntity
  8
Visibile (ISO)_Num_Penna__1
  6
Continuous
100
AcDbSpline
210
0.0
220
0.0
230
1.0
 70
     8
 71
     3
 72
     8
 73
     4
 74
     0
 42
0.000000001
 43
0.0000000001
 40
2.0
 40
2.0
 40
2.0
 40
2.0
 40
3.0
 40
3.0
 40
3.0
 40
3.0
 10
20.880669531824
 20
8.870216465935184
 30
0.0
 10
20.88068287914837
 20
8.870208759884462
 30
0.0
 10
20.88069516522552
 20
8.870201662441813
 30
0.0
 10
20.8807063741979
 20
8.870195190899949
 30
0.0
  0
TEXT
  5
4A6
330
1F
100
AcDbEntity
  8
Annotazioni - Testi_Num_Penna__171
100
AcDbText
 10
20.83706481600299
 20
9.315242391731985
 30
0.0
 40
0.015
  1
bus
  7
GENERATED_STYLE_1
100
AcDbText
1001
ACAD
1000
MTEXTBEGIN
1070
    73
1070
     1
1070
    44
1040
0.9427278544656731
1070
    74
1070
     0
1000
MTEXTEND
  0
TEXT
  5
4A7
330
1F
100
AcDbEntity
  8
Annotazioni - Testi_Num_Penna__171
100
AcDbText
 10
20.81494339717625
 20
9.291674195370292
 30
0.0
 40
0.015
  1
status
  7
GENERATED_STYLE_1
100
AcDbText
1001
ACAD
1000
MTEXTBEGIN
1070
    73
1070
     1
1070
    44
1040
0.9427278544656731
1070
    74
1070
     0
1000
MTEXTEND
  0
TEXT
  5
4A8
330
1F
100
AcDbEntity
  8
Annotazioni - Testi_Num_Penna__171
100
AcDbText
 10
20.81900547084612
 20
9.202459927366804
 30
0.0
 40
0.015
  1
traffic
  7
GENERATED_STYLE_1
100
AcDbText
1001
ACAD
1000
MTEXTBEGIN
1070
    73
1070
     1
1070
    44
1040
1.0
1070
    74
1070
     0
1000
MTEXTEND
  0
TEXT
  5
4A9
330
1F
100
AcDbEntity
  8
Annotazioni - Testi_Num_Penna__171
100
AcDbText
 10
20.83973534806304
 20
9.144459867229867
 30
0.0
 40
0.015
  1
GA
  7
GENERATED_STYLE_1
100
AcDbText
1001
ACAD
1000
MTEXTBEGIN
1070
    73
1070
     1
1070
    44
1040
1.0
1070
    74
1070
     0
1000
MTEXTEND
  0
TEXT
  5
4AA
330
1F
100
AcDbEntity
  8
Visibile (ISO)_Num_Penna__1
100
AcDbText
 10
20.82742894552624
 20
9.092459913087935
 30
0.0
 40
0.015
  1
function
  7
GENERATED_STYLE_1
100
AcDbText
1001
ACAD
1000
MTEXTBEGIN
1070
    73
1070
     1
1070
    44
1040
1.0
1070
    74
1070
     0
1000
MTEXTEND
  0
TEXT
  5
4AB
330
1F
100
AcDbEntity
  8
Annotazioni - Testi_Num_Penna__171
100
AcDbText
 10
21.00291369173323
 20
9.144450926282928
 30
0.0
 40
0.015
  1
PA
  7
GENERATED_STYLE_1
100
AcDbText
1001
ACAD
1000
MTEXTBEGIN
1070
    73
1070
     1
1070
    44
1040
1.0
1070
    74
1070
     0
1000
MTEXTEND
  0
TEXT
  5
4AC
330
1F
100
AcDbEntity
  8
Annotazioni - Testi_Num_Penna__41
100
AcDbText
 10
20.90380322340394
 20
9.384399144135258
 30
0.0
 40
0.003
  1
R
  7
GENERATED_STYLE_2
100
AcDbText
1001
ACAD
1000
MTEXTBEGIN
1070
    73
1070
     1
1070
    44
1040
1.0
1070
    74
1070
     0
1000
MTEXTEND
  0
TEXT
  5
4AD
330
1F
100
AcDbEntity
  8
Visibile (ISO)_Num_Penna__1
100
AcDbText
 10
20.90929538358247
 20
9.378462462679721
 30
0.0
 40
0.0149999999999863
  1
EK-BB1-TP
  7
GENERATED_STYLE_3
100
AcDbText
1001
ACAD
1000
MTEXTBEGIN
1070
    73
1070
     1
1070
    44
1040
1.0
1070
    74
1070
     0
1000
MTEXTEND
  0
TEXT
  5
4AE
330
1F
100
AcDbEntity
  8
Visibile (ISO)_Num_Penna__1
100
AcDbText
 10
20.864379143107
 20
9.252950932628747
 30
0.0
 40
0.015
  1
MAIN
  7
GENERATED_STYLE_1
100
AcDbText
1001
ACAD
1000
MTEXTBEGIN
1070
    73
1070
     1
1070
    44
1040
1.0
1070
    74
1070
     0
1000
MTEXTEND
  0
TEXT
  5
4AF
330
1F
100
AcDbEntity
  8
Visibile (ISO)_Num_Penna__1
100
AcDbText
 10
20.95959959310297
 20
9.253558354860428
 30
0.0
 40
0.015
  1
SUB
  7
GENERATED_STYLE_1
100
AcDbText
1001
ACAD
1000
MTEXTBEGIN
1070
    73
1070
     1
1070
    44
1040
1.0
1070
    74
1070
     0
1000
MTEXTEND
  0
TEXT
  5
4B0
330
1F
100
AcDbEntity
  8
Visibile (ISO)_Num_Penna__1
100
AcDbText
 10
20.90901836691964
 20
9.354834068854854
 30
0.0
 40
0.013
  1
Ip interface
 41
0.9
  7
GENERATED_STYLE_1
100
AcDbText
1001
ACAD
1000
MTEXTBEGIN
1070
    73
1070
     1
1070
    44
1040
1.0
1070
    74
1070
     0
1000
MTEXTEND
  0
LINE
  5
4B1
330
1F
100
AcDbEntity
  8
Visibile (ISO)_Num_Penna__1
100
AcDbLine
 10
20.92454230577107
 20
9.475093767501419
 30
0.0
 11
20.92454230577107
 21
9.700093767501456
 31
0.0
  0
HATCH
  5
4B2
330
1F
100
AcDbEntity
  8
000_CIANO_Num_Penna__171
100
AcDbHatch
 10
0.0
 20
0.0
 30
0.0
210
0.0
220
0.0
230
1.0
  2
SOLID
 70
     1
 71
     1
 91
        1
 92
        7
 72
     1
 73
     1
 93
        7
 10
21.04859565847911
 20
9.422093767501763
 42
0.0
 10
21.0610423057712
 20
9.422093767501763
 42
0.0
 10
21.0610423057712
 20
9.452593767501952
 42
0.4142135623730953
 10
21.05454230577112
 20
9.459093767502022
 42
0.0
 10
20.79454230577101
 20
9.459093767501911
 42
0.4142135623729831
 10
20.78804230577106
 20
9.452593767501952
 42
0.0
 10
20.78804230577106
 20
9.422093767501763
 42
0.0
 97
        7
330
4CC
330
4B3
330
4B4
330
4B5
330
4B6
330
4CA
330
4CB
 75
     1
 76
     1
 47
0.0000156696492291
 98
        1
 10
20.89093439179245
 20
9.435434077994143
450
        0
451
        0
460
0.0
461
0.0
452
        0
462
1.0
453
        2
463
0.0
 63
     5
421
      255
463
1.0
 63
     2
421
 16776960
470
LINEAR
1001
GradientColor1ACI
1070
     5
1001
GradientColor2ACI
1070
     2
1001
ACAD
1010
0.0
1020
0.0
1030
0.0
  0
LINE
  5
4B3
102
{ACAD_REACTORS
330
4B2
102
}
330
1F
100
AcDbEntity
  8
000_CIANO_Num_Penna__171
  6
Continuous
100
AcDbLine
 10
21.05454230577112
 20
9.459093767501924
 30
0.0
 11
20.79454230577102
 21
9.459093767501924
 31
0.0
  0
ARC
  5
4B4
102
{ACAD_REACTORS
330
4B2
102
}
330
1F
100
AcDbEntity
  8
000_CIANO_Num_Penna__171
  6
Continuous
100
AcDbCircle
 10
20.79454230577102
 20
9.452593767501952
 30
0.0
 40
0.00649999999996
100
AcDbArc
 50
90.0
 51
180.0
  0
LINE
  5
4B5
102
{ACAD_REACTORS
330
4B2
102
}
330
1F
100
AcDbEntity
  8
000_CIANO_Num_Penna__171
  6
Continuous
100
AcDbLine
 10
20.78804230577106
 20
9.452593767501952
 30
0.0
 11
20.78804230577106
 21
9.422093767501763
 31
0.0
  0
LINE
  5
4B6
102
{ACAD_REACTORS
330
4B2
102
}
330
1F
100
AcDbEntity
  8
000_CIANO_Num_Penna__171
  6
Continuous
100
AcDbLine
 10
20.78804230577106
 20
9.422093767501763
 30
0.0
 11
21.04859565847911
 21
9.422093767501763
 31
0.0
  0
LINE
  5
4B7
330
1F
100
AcDbEntity
  8
000_CIANO_Num_Penna__171
  6
Continuous
100
AcDbLine
 10
20.94262139884571
 20
9.434459594979299
 30
0.0
 11
20.94262139884571
 21
9.432339699449556
 31
0.0
  0
LINE
  5
4B8
330
1F
100
AcDbEntity
  8
000_CIANO_Num_Penna__171
  6
Continuous
100
AcDbLine
 10
20.94262139884571
 20
9.432339699449556
 30
0.0
 11
20.922468468457
 21
9.432339699449556
 31
0.0
  0
LINE
  5
4B9
330
1F
100
AcDbEntity
  8
000_CIANO_Num_Penna__171
  6
Continuous
100
AcDbLine
 10
20.94991395564008
 20
9.446261400944178
 30
0.0
 11
20.94991395564008
 21
9.434161400944132
 31
0.0
  0
LINE
  5
4BA
330
1F
100
AcDbEntity
  8
000_CIANO_Num_Penna__171
  6
Continuous
100
AcDbLine
 10
20.95924749670547
 20
9.446261400944178
 30
0.0
 11
20.96525992432276
 21
9.446261400944178
 31
0.0
  0
LINE
  5
4BB
330
1F
100
AcDbEntity
  8
000_CIANO_Num_Penna__171
  6
Continuous
100
AcDbLine
 10
20.96525992432276
 20
9.446261400944178
 30
0.0
 11
20.95634920824767
 21
9.434161400944132
 31
0.0
  0
LINE
  5
4BC
330
1F
100
AcDbEntity
  8
000_CIANO_Num_Penna__171
  6
Continuous
100
AcDbLine
 10
20.95634920824767
 20
9.434161400944132
 30
0.0
 11
20.96615240070111
 21
9.422093767501763
 31
0.0
  0
LINE
  5
4BD
330
1F
100
AcDbEntity
  8
000_CIANO_Num_Penna__171
  6
Continuous
100
AcDbLine
 10
20.96791871051161
 20
9.446261400944178
 30
0.0
 11
20.97324653624327
 21
9.446261400944178
 31
0.0
  0
LINE
  5
4BE
330
1F
100
AcDbEntity
  8
000_CIANO_Num_Penna__171
  6
Continuous
100
AcDbLine
 10
20.97324653624327
 20
9.446261400944178
 30
0.0
 11
20.97324653624327
 21
9.422093767501763
 31
0.0
  0
ARC
  5
4BF
330
1F
100
AcDbEntity
  8
000_CIANO_Num_Penna__171
  6
Continuous
100
AcDbCircle
 10
21.00882858951269
 20
9.433688494513358
 30
0.0
 40
0.0333246946130751
100
AcDbArc
 50
170.981736585816
 51
177.7639539887786
  0
ARC
  5
4C0
330
1F
100
AcDbEntity
  8
000_CIANO_Num_Penna__171
  6
Continuous
100
AcDbCircle
 10
20.96554099473505
 20
9.433688494512892
 30
0.0
 40
0.0333246946136551
100
AcDbArc
 50
2.236046011964421
 51
9.018263415411238
  0
LINE
  5
4C1
330
1F
100
AcDbEntity
  8
000_CIANO_Num_Penna__171
  6
Continuous
100
AcDbLine
 10
20.99884031486187
 20
9.434988706104816
 30
0.0
 11
20.99884031486187
 21
9.422093767501763
 31
0.0
  0
LINE
  5
4C2
330
1F
100
AcDbEntity
  8
000_CIANO_Num_Penna__171
  6
Continuous
100
AcDbLine
 10
20.99884031486187
 20
9.422093767501763
 30
0.0
 11
21.00861001612097
 21
9.422093767501763
 31
0.0
  0
LINE
  5
4C3
330
1F
100
AcDbEntity
  8
000_CIANO_Num_Penna__171
  6
Continuous
100
AcDbLine
 10
21.02164350744278
 20
9.422093767501763
 30
0.0
 11
21.03144669989621
 21
9.434161400944132
 31
0.0
  0
LINE
  5
4C4
330
1F
100
AcDbEntity
  8
000_CIANO_Num_Penna__171
  6
Continuous
100
AcDbLine
 10
21.02253598382092
 20
9.446261400944178
 30
0.0
 11
21.02854841143832
 21
9.446261400944178
 31
0.0
  0
LINE
  5
4C5
330
1F
100
AcDbEntity
  8
000_CIANO_Num_Penna__171
  6
Continuous
100
AcDbLine
 10
21.02854841143832
 20
9.446261400944178
 30
0.0
 11
21.03511958296139
 21
9.437742536038713
 31
0.0
  0
LINE
  5
4C6
330
1F
100
AcDbEntity
  8
000_CIANO_Num_Penna__171
  6
Continuous
100
AcDbLine
 10
21.03511958296139
 20
9.437742536038713
 30
0.0
 11
21.04169075448382
 21
9.446261400944178
 31
0.0
  0
LINE
  5
4C7
330
1F
100
AcDbEntity
  8
000_CIANO_Num_Penna__171
  6
Continuous
100
AcDbLine
 10
21.04169075448382
 20
9.446261400944178
 30
0.0
 11
21.04770318210112
 21
9.446261400944178
 31
0.0
  0
LINE
  5
4C8
330
1F
100
AcDbEntity
  8
000_CIANO_Num_Penna__171
  6
Continuous
100
AcDbLine
 10
21.04770318210112
 20
9.446261400944178
 30
0.0
 11
21.03879246602614
 21
9.434161400944132
 31
0.0
  0
LINE
  5
4C9
330
1F
100
AcDbEntity
  8
000_CIANO_Num_Penna__171
  6
Continuous
100
AcDbLine
 10
21.03879246602614
 20
9.434161400944132
 30
0.0
 11
21.04859565847911
 21
9.422093767501763
 31
0.0
  0
LINE
  5
4CA
102
{ACAD_REACTORS
330
4B2
102
}
330
1F
100
AcDbEntity
  8
000_CIANO_Num_Penna__171
  6
Continuous
100
AcDbLine
 10
21.04859565847911
 20
9.422093767501763
 30
0.0
 11
21.0610423057712
 21
9.422093767501763
 31
0.0
  0
LINE
  5
4CB
102
{ACAD_REACTORS
330
4B2
102
}
330
1F
100
AcDbEntity
  8
000_CIANO_Num_Penna__171
  6
Continuous
100
AcDbLine
 10
21.0610423057712
 20
9.422093767501763
 30
0.0
 11
21.0610423057712
 21
9.452593767501952
 31
0.0
  0
ARC
  5
4CC
102
{ACAD_REACTORS
330
4B2
102
}
330
1F
100
AcDbEntity
  8
000_CIANO_Num_Penna__171
  6
Continuous
100
AcDbCircle
 10
21.05454230577112
 20
9.452593767501952
 30
0.0
 40
0.0065000000000737
100
AcDbArc
 50
0.0
 51
90.0
  0
LINE
  5
4CD
330
1F
100
AcDbEntity
  8
000_CIANO_Num_Penna__171
  6
Continuous
100
AcDbLine
 10
20.92262847714616
 20
9.436612880910487
 30
0.0
 11
20.93741136970706
 21
9.436612880910487
 31
0.0
  0
LINE
  5
4CE
330
1F
100
AcDbEntity
  8
000_CIANO_Num_Penna__171
  6
Continuous
100
AcDbLine
 10
20.98085709508115
 20
9.434487847226236
 30
0.0
 11
20.98085709508115
 21
9.434988706104816
 31
0.0
  0
ARC
  5
4CF
330
1F
100
AcDbEntity
  8
000_CIANO_Num_Penna__171
  6
Continuous
100
AcDbCircle
 10
20.99130585408941
 20
9.435053208435746
 30
0.0
 40
0.010448958099385
100
AcDbArc
 50
163.9404667967531
 51
180.353694097374
  0
ARC
  5
4D0
330
1F
100
AcDbEntity
  8
000_CIANO_Num_Penna__171
  6
Continuous
100
AcDbCircle
 10
20.9862615718674
 20
9.436748146538404
 30
0.0
 40
0.0051379515459552
100
AcDbArc
 50
141.3826851622817
 51
166.5437022826301
  0
LINE
  5
4D1
330
1F
100
AcDbEntity
  8
000_CIANO_Num_Penna__171
  6
Continuous
100
AcDbLine
 10
20.98685524411664
 20
9.441840082349898
 30
0.0
 11
20.98744745552398
 21
9.441840082349898
 31
0.0
  0
HATCH
  5
4D2
330
1F
100
AcDbEntity
  8
0
 62
     7
100
AcDbHatch
 10
0.0
 20
0.0
 30
0.0
210
0.0
220
0.0
230
1.0
  2
SOLID
 70
     1
 71
     0
 91
        3
 92
        5
 93
       60
 72
     4
 94
        3
 73
     0
 74
     0
 95
        8
 96
        4
 40
3.0
 40
3.0
 40
3.0
 40
3.0
 40
4.0
 40
4.0
 40
4.0
 40
4.0
 10
20.99854901232715
 20
9.438770735025173
 10
20.99847403982562
 20
9.439155189218157
 10
20.9983625071184
 20
9.439531187183886
 10
20.99824849309036
 20
9.439906029917095
 97
        0
 72
     4
 94
        3
 73
     0
 74
     0
 95
        8
 96
        4
 40
4.0
 40
4.0
 40
4.0
 40
4.0
 40
5.0
 40
5.0
 40
5.0
 40
5.0
 10
20.99824849309036
 20
9.439906029917095
 10
20.9981326569629
 20
9.440286863147877
 10
20.99800794968144
 20
9.440664743369893
 10
20.99786115718777
 20
9.441034646603412
 97
        0
 72
     4
 94
        3
 73
     0
 74
     0
 95
        8
 96
        4
 40
5.0
 40
5.0
 40
5.0
 40
5.0
 40
6.0
 40
6.0
 40
6.0
 40
6.0
 10
20.99786115718777
 20
9.441034646603412
 10
20.99769188869386
 20
9.441461187236866
 10
20.99749836003656
 20
9.441878919653163
 10
20.99726234478319
 20
9.442272340896009
 97
        0
 72
     4
 94
        3
 73
     0
 74
     0
 95
        8
 96
        4
 40
6.0
 40
6.0
 40
6.0
 40
6.0
 40
7.0
 40
7.0
 40
7.0
 40
7.0
 10
20.99726234478319
 20
9.442272340896009
 10
20.99705821845532
 20
9.442612605486699
 10
20.99682060466611
 20
9.442930968295428
 10
20.99657226356848
 20
9.443240680647278
 97
        0
 72
     4
 94
        3
 73
     0
 74
     0
 95
        8
 96
        4
 40
7.0
 40
7.0
 40
7.0
 40
7.0
 40
8.0
 40
8.0
 40
8.0
 40
8.0
 10
20.99657226356848
 20
9.443240680647278
 10
20.99635002284779
 20
9.4435178425705
 10
20.99611615555193
 20
9.443784890711439
 10
20.99586548685286
 20
9.444036500116707
 97
        0
 72
     4
 94
        3
 73
     0
 74
     0
 95
        8
 96
        4
 40
8.0
 40
8.0
 40
8.0
 40
8.0
 40
9.0
 40
9.0
 40
9.0
 40
9.0
 10
20.99586548685286
 20
9.444036500116707
 10
20.99549192197191
 20
9.444411466906911
 10
20.99509053416324
 20
9.444759139315946
 10
20.99466340990387
 20
9.44507162190473
 97
        0
 72
     4
 94
        3
 73
     0
 74
     0
 95
        8
 96
        4
 40
9.0
 40
9.0
 40
9.0
 40
9.0
 40
10.0
 40
10.0
 40
10.0
 40
10.0
 10
20.99466340990387
 20
9.44507162190473
 10
20.99433273035248
 20
9.445313545888666
 10
20.99398700908665
 20
9.445534962651224
 10
20.99362272291037
 20
9.445722746959075
 97
        0
 72
     4
 94
        3
 73
     0
 74
     0
 95
        8
 96
        4
 40
10.0
 40
10.0
 40
10.0
 40
10.0
 40
11.0
 40
11.0
 40
11.0
 40
11.0
 10
20.99362272291037
 20
9.445722746959075
 10
20.99330808719106
 20
9.445884937167207
 10
20.99298316721522
 20
9.446025360992278
 10
20.99265438316166
 20
9.446156830280171
 97
        0
 72
     4
 94
        3
 73
     0
 74
     0
 95
        8
 96
        4
 40
11.0
 40
11.0
 40
11.0
 40
11.0
 40
12.0
 40
12.0
 40
12.0
 40
12.0
 10
20.99265438316166
 20
9.446156830280171
 10
20.99223405366672
 20
9.4463249054005
 10
20.99181284298067
 20
9.446492038987898
 10
20.99137995899537
 20
9.446624304691923
 97
        0
 72
     4
 94
        3
 73
     0
 74
     0
 95
        8
 96
        4
 40
12.0
 40
12.0
 40
12.0
 40
12.0
 40
13.0
 40
13.0
 40
13.0
 40
13.0
 10
20.99137995899537
 20
9.446624304691923
 10
20.99106000317124
 20
9.446722065717507
 10
20.99073437599668
 20
9.446799125947107
 10
20.99040605407868
 20
9.446863607007912
 97
        0
 72
     4
 94
        3
 73
     0
 74
     0
 95
        8
 96
        4
 40
13.0
 40
13.0
 40
13.0
 40
13.0
 40
14.0
 40
14.0
 40
14.0
 40
14.0
 10
20.99040605407868
 20
9.446863607007912
 10
20.98997512541834
 20
9.446948239606951
 10
20.9895409434925
 20
9.44701668573191
 10
20.98910380399977
 20
9.447058388000099
 97
        0
 72
     4
 94
        3
 73
     0
 74
     0
 95
        8
 96
        4
 40
14.0
 40
14.0
 40
14.0
 40
14.0
 40
15.0
 40
15.0
 40
15.0
 40
15.0
 10
20.98910380399977
 20
9.447058388000099
 10
20.98860997299181
 20
9.447105498529735
 10
20.98811404120585
 20
9.447132419132801
 10
20.98761790336693
 20
9.447136300347011
 97
        0
 72
     4
 94
        3
 73
     0
 74
     0
 95
        8
 96
        4
 40
15.0
 40
15.0
 40
15.0
 40
15.0
 40
15.99999
 40
15.99999
 40
15.99999
 40
15.99999
 10
20.98761790336693
 20
9.447136300347011
 10
20.98744178593353
 20
9.447137678088182
 10
20.98726573667469
 20
9.447136300477195
 10
20.98726573315653
 20
9.447136300449642
 97
        0
 72
     4
 94
        3
 73
     0
 74
     0
 95
        8
 96
        4
 40
15.0
 40
15.0
 40
15.0
 40
15.0
 40
15.99999
 40
15.99999
 40
15.99999
 40
15.99999
 10
20.98726573326795
 20
9.447136300449642
 10
20.98726572974411
 20
9.447136300477195
 10
20.98708968045429
 20
9.447137678088182
 10
20.98691356302015
 20
9.447136300347011
 97
        0
 72
     4
 94
        3
 73
     0
 74
     0
 95
        8
 96
        4
 40
14.0
 40
14.0
 40
14.0
 40
14.0
 40
15.0
 40
15.0
 40
15.0
 40
15.0
 10
20.98691356302015
 20
9.447136300347011
 10
20.98641742518262
 20
9.447132419132801
 10
20.98592149335653
 20
9.44710549852992
 10
20.98542766234988
 20
9.447058388000099
 97
        0
 72
     4
 94
        3
 73
     0
 74
     0
 95
        8
 96
        4
 40
13.0
 40
13.0
 40
13.0
 40
13.0
 40
14.0
 40
14.0
 40
14.0
 40
14.0
 10
20.98542766234988
 20
9.447058388000099
 10
20.9849905228607
 20
9.44701668573191
 10
20.98455634101546
 20
9.446948239606056
 10
20.98412541235822
 20
9.446863607007912
 97
        0
 72
     4
 94
        3
 73
     0
 74
     0
 95
        8
 96
        4
 40
12.0
 40
12.0
 40
12.0
 40
12.0
 40
13.0
 40
13.0
 40
13.0
 40
13.0
 10
20.98412541235822
 20
9.446863607007912
 10
20.98379709043894
 20
9.446799125947107
 10
20.98347146325904
 20
9.446722065717507
 10
20.983151507434
 20
9.446624304691923
 97
        0
 72
     4
 94
        3
 73
     0
 74
     0
 95
        8
 96
        4
 40
11.0
 40
11.0
 40
11.0
 40
11.0
 40
12.0
 40
12.0
 40
12.0
 40
12.0
 10
20.983151507434
 20
9.446624304691923
 10
20.98271862344791
 20
9.446492038988507
 10
20.98229741274963
 20
9.4463249054005
 10
20.98187708325395
 20
9.446156830280171
 97
        0
 72
     4
 94
        3
 73
     0
 74
     0
 95
        8
 96
        4
 40
10.0
 40
10.0
 40
10.0
 40
10.0
 40
11.0
 40
11.0
 40
11.0
 40
11.0
 10
20.98187708325395
 20
9.446156830280171
 10
20.98154829919971
 20
9.446025360992278
 10
20.98122337920415
 20
9.445884937167631
 10
20.9809087434847
 20
9.445722746959075
 97
        0
 72
     4
 94
        3
 73
     0
 74
     0
 95
        8
 96
        4
 40
9.0
 40
9.0
 40
9.0
 40
9.0
 40
10.0
 40
10.0
 40
10.0
 40
10.0
 10
20.9809087434847
 20
9.445722746959075
 10
20.98054445730952
 20
9.445534962651546
 10
20.98019873605315
 20
9.44531354588824
 10
20.97986805650226
 20
9.44507162190473
 97
        0
 72
     4
 94
        3
 73
     0
 74
     0
 95
        8
 96
        4
 40
8.0
 40
8.0
 40
8.0
 40
8.0
 40
9.0
 40
9.0
 40
9.0
 40
9.0
 10
20.97986805650226
 20
9.44507162190473
 10
20.97944093224345
 20
9.444759139315946
 10
20.97903954444252
 20
9.444411466906911
 10
20.9786659795619
 20
9.444036500116707
 97
        0
 72
     4
 94
        3
 73
     0
 74
     0
 95
        8
 96
        4
 40
7.0
 40
7.0
 40
7.0
 40
7.0
 40
8.0
 40
8.0
 40
8.0
 40
8.0
 10
20.9786659795619
 20
9.444036500116707
 10
20.9784153108624
 20
9.443784890711057
 10
20.97818144355625
 20
9.443517842570583
 10
20.97795920283556
 20
9.443240680647278
 97
        0
 72
     4
 94
        3
 73
     0
 74
     0
 95
        8
 96
        4
 40
6.0
 40
6.0
 40
6.0
 40
6.0
 40
7.0
 40
7.0
 40
7.0
 40
7.0
 10
20.97795920283556
 20
9.443240680647278
 10
20.97771086173793
 20
9.442930968295428
 10
20.97747324795751
 20
9.442612605486599
 10
20.97726912162972
 20
9.442272340896009
 97
        0
 72
     4
 94
        3
 73
     0
 74
     0
 95
        8
 96
        4
 40
5.0
 40
5.0
 40
5.0
 40
5.0
 40
6.0
 40
6.0
 40
6.0
 40
6.0
 10
20.97726912162972
 20
9.442272340896009
 10
20.97703310637638
 20
9.441878919653163
 10
20.97683957771844
 20
9.441461187237136
 10
20.9766703092248
 20
9.441034646603412
 97
        0
 72
     4
 94
        3
 73
     0
 74
     0
 95
        8
 96
        4
 40
4.0
 40
4.0
 40
4.0
 40
4.0
 40
5.0
 40
5.0
 40
5.0
 40
5.0
 10
20.9766703092248
 20
9.441034646603412
 10
20.97652351673145
 20
9.440664743369893
 10
20.97639880944749
 20
9.440286863147877
 10
20.97628297331983
 20
9.439906029917095
 97
        0
 72
     4
 94
        3
 73
     0
 74
     0
 95
        8
 96
        4
 40
3.0
 40
3.0
 40
3.0
 40
3.0
 40
4.0
 40
4.0
 40
4.0
 40
4.0
 10
20.97628297331983
 20
9.439906029917095
 10
20.97616895929187
 20
9.439531187183886
 10
20.97605742658573
 20
9.439155189218157
 10
20.97598245408403
 20
9.438770735025173
 97
        0
 72
     4
 94
        3
 73
     0
 74
     0
 95
        8
 96
        4
 40
2.0
 40
2.0
 40
2.0
 40
2.0
 40
3.0
 40
3.0
 40
3.0
 40
3.0
 10
20.97598245408403
 20
9.438770735025173
 10
20.97590077079977
 20
9.43835186836705
 10
20.97585889024535
 20
9.437926542663246
 10
20.97581549895287
 20
9.437501876026344
 97
        0
 72
     4
 94
        3
 73
     0
 74
     0
 95
        8
 96
        4
 40
1.0
 40
1.0
 40
1.0
 40
1.0
 40
2.0
 40
2.0
 40
2.0
 40
2.0
 10
20.97581549895287
 20
9.437501876026344
 10
20.97576981101884
 20
9.4370547323649
 10
20.97572084405451
 20
9.43660787052272
 10
20.97568861305299
 20
9.436159556770576
 97
        0
 72
     4
 94
        3
 73
     0
 74
     0
 95
        8
 96
        4
 40
0.0004841987840492
 40
0.0004841987840492
 40
0.0004841987840492
 40
0.0004841987840492
 40
1.0
 40
1.0
 40
1.0
 40
1.0
 10
20.97568861305299
 20
9.436159556770576
 10
20.97564713003123
 20
9.435582553004524
 10
20.9756258198257
 20
9.435004342944635
 10
20.97562579919868
 20
9.43500378314269
 97
        0
 72
     1
 10
20.97562579918369
 20
9.435003782768561
 11
20.97562579918369
 21
9.422093767501767
 72
     1
 10
20.97562579918369
 20
9.422093767501763
 11
20.98094649915593
 21
9.422093767501763
 72
     1
 10
20.98094649915593
 20
9.422093767501763
 11
20.98094649915593
 21
9.435003782827511
 72
     4
 94
        3
 73
     0
 74
     0
 95
        8
 96
        4
 40
0.0005922724103579
 40
0.0005922724103579
 40
0.0005922724103579
 40
0.0005922724103579
 40
1.0
 40
1.0
 40
1.0
 40
1.0
 10
20.98094649916581
 20
9.435003783242251
 10
20.98094651040213
 20
9.435004352837834
 10
20.98095600553373
 20
9.435485351049893
 10
20.98098768109204
 20
9.435965375926327
 97
        0
 72
     4
 94
        3
 73
     0
 74
     0
 95
        8
 96
        4
 40
1.0
 40
1.0
 40
1.0
 40
1.0
 40
2.0
 40
2.0
 40
2.0
 40
2.0
 10
20.98098768109204
 20
9.435965375926327
 10
20.98101156679991
 20
9.436327350102033
 10
20.98105779618172
 20
9.436687132118095
 10
20.98112405895449
 20
9.43704361340302
 97
        0
 72
     4
 94
        3
 73
     0
 74
     0
 95
        8
 96
        4
 40
2.0
 40
2.0
 40
2.0
 40
2.0
 40
3.0
 40
3.0
 40
3.0
 40
3.0
 10
20.98112405895449
 20
9.43704361340302
 10
20.98121236460071
 20
9.437518681210818
 10
20.98135142652743
 20
9.437982993875264
 10
20.98151727042705
 20
9.438436746124594
 97
        0
 72
     4
 94
        3
 73
     0
 74
     0
 95
        8
 96
        4
 40
3.0
 40
3.0
 40
3.0
 40
3.0
 40
4.0
 40
4.0
 40
4.0
 40
4.0
 10
20.98151727042705
 20
9.438436746124594
 10
20.981674134462
 20
9.438865929282682
 10
20.98184945519486
 20
9.439292286717542
 10
20.98210053127008
 20
9.439673966093453
 97
        0
 72
     4
 94
        3
 73
     0
 74
     0
 95
        8
 96
        4
 40
4.0
 40
4.0
 40
4.0
 40
4.0
 40
5.0
 40
5.0
 40
5.0
 40
5.0
 10
20.98210053127008
 20
9.439673966093453
 10
20.9822666463138
 20
9.4399264899005
 10
20.98246004420466
 20
9.440159006625563
 10
20.98267495482844
 20
9.440372111650987
 97
        0
 72
     4
 94
        3
 73
     0
 74
     0
 95
        8
 96
        4
 40
5.0
 40
5.0
 40
5.0
 40
5.0
 40
6.0
 40
6.0
 40
6.0
 40
6.0
 10
20.98267495482844
 20
9.440372111650987
 10
20.98286237454903
 20
9.440557956741374
 10
20.98305966193038
 20
9.440733382667103
 10
20.98327589024032
 20
9.440884674207479
 97
        0
 72
     4
 94
        3
 73
     0
 74
     0
 95
        8
 96
        4
 40
6.0
 40
6.0
 40
6.0
 40
6.0
 40
7.0
 40
7.0
 40
7.0
 40
7.0
 10
20.98327589024032
 20
9.440884674207479
 10
20.98350553698441
 20
9.441045354414653
 10
20.98375160341465
 20
9.44118127308846
 10
20.98400938493637
 20
9.441291189347596
 97
        0
 72
     4
 94
        3
 73
     0
 74
     0
 95
        8
 96
        4
 40
7.0
 40
7.0
 40
7.0
 40
7.0
 40
8.0
 40
8.0
 40
8.0
 40
8.0
 10
20.98400938493637
 20
9.441291189347596
 10
20.98431139836342
 20
9.441419965785499
 10
20.98462680411046
 20
9.441514791406687
 10
20.98494613720124
 20
9.441591657053564
 97
        0
 72
     4
 94
        3
 73
     0
 74
     0
 95
        8
 96
        4
 40
8.0
 40
8.0
 40
8.0
 40
8.0
 40
9.0
 40
9.0
 40
9.0
 40
9.0
 10
20.98494613720124
 20
9.441591657053564
 10
20.98523202178922
 20
9.44166047141833
 10
20.98552060039728
 20
9.441717693211131
 10
20.98581204133362
 20
9.441757204852036
 97
        0
 72
     4
 94
        3
 73
     0
 74
     0
 95
        8
 96
        4
 40
9.0
 40
9.0
 40
9.0
 40
9.0
 40
10.0
 40
10.0
 40
10.0
 40
10.0
 10
20.98581204133362
 20
9.441757204852036
 10
20.98605779761994
 20
9.441790522868911
 10
20.98630451719222
 20
9.441816727971627
 10
20.98655223532782
 20
9.441829070395584
 97
        0
 72
     4
 94
        3
 73
     0
 74
     0
 95
        8
 96
        4
 40
10.0
 40
10.0
 40
10.0
 40
10.0
 40
10.99999
 40
10.99999
 40
10.99999
 40
10.99999
 10
20.98655223532782
 20
9.441829070395584
 10
20.98690866876041
 20
9.441846829500716
 10
20.98726572606532
 20
9.441841962566343
 10
20.98726573320687
 20
9.441841962468998
 97
        0
 72
     4
 94
        3
 73
     0
 74
     0
 95
        8
 96
        4
 40
10.0
 40
10.0
 40
10.0
 40
10.0
 40
10.99999
 40
10.99999
 40
10.99999
 40
10.99999
 10
20.9872657332038
 20
9.441841962468998
 10
20.98726574034444
 20
9.441841962566343
 10
20.98762279764273
 20
9.441846829500503
 10
20.98797923107563
 20
9.441829070395584
 97
        0
 72
     4
 94
        3
 73
     0
 74
     0
 95
        8
 96
        4
 40
9.0
 40
9.0
 40
9.0
 40
9.0
 40
10.0
 40
10.0
 40
10.0
 40
10.0
 10
20.98797923107563
 20
9.441829070395584
 10
20.98822694921165
 20
9.441816727971982
 10
20.988473668783
 20
9.441790522868911
 10
20.98871942506958
 20
9.441757204852036
 97
        0
 72
     4
 94
        3
 73
     0
 74
     0
 95
        8
 96
        4
 40
8.0
 40
8.0
 40
8.0
 40
8.0
 40
9.0
 40
9.0
 40
9.0
 40
9.0
 10
20.98871942506958
 20
9.441757204852036
 10
20.98901086600648
 20
9.441717693211131
 10
20.98929944462572
 20
9.441660471418556
 10
20.98958532921378
 20
9.441591657053564
 97
        0
 72
     4
 94
        3
 73
     0
 74
     0
 95
        8
 96
        4
 40
7.0
 40
7.0
 40
7.0
 40
7.0
 40
8.0
 40
8.0
 40
8.0
 40
8.0
 10
20.98958532921378
 20
9.441591657053564
 10
20.98990466230407
 20
9.441514791406603
 10
20.99022006804677
 20
9.441419965785016
 10
20.99052208147339
 20
9.441291189347596
 97
        0
 72
     4
 94
        3
 73
     0
 74
     0
 95
        8
 96
        4
 40
6.0
 40
6.0
 40
6.0
 40
6.0
 40
7.0
 40
7.0
 40
7.0
 40
7.0
 10
20.99052208147339
 20
9.441291189347596
 10
20.99077986299545
 20
9.44118127308846
 10
20.99102592942566
 20
9.441045354414567
 10
20.99125557617006
 20
9.440884674207479
 97
        0
 72
     4
 94
        3
 73
     0
 74
     0
 95
        8
 96
        4
 40
5.0
 40
5.0
 40
5.0
 40
5.0
 40
6.0
 40
6.0
 40
6.0
 40
6.0
 10
20.99125557617006
 20
9.440884674207479
 10
20.99147180448046
 20
9.440733382667103
 10
20.99166909186351
 20
9.440557956741374
 10
20.99185651158405
 20
9.440372111650987
 97
        0
 72
     4
 94
        3
 73
     0
 74
     0
 95
        8
 96
        4
 40
4.0
 40
4.0
 40
4.0
 40
4.0
 40
5.0
 40
5.0
 40
5.0
 40
5.0
 10
20.99185651158405
 20
9.440372111650987
 10
20.99207142220791
 20
9.440159006625563
 10
20.99226482009803
 20
9.4399264899005
 10
20.99243093514201
 20
9.439673966093453
 97
        0
 72
     4
 94
        3
 73
     0
 74
     0
 95
        8
 96
        4
 40
3.0
 40
3.0
 40
3.0
 40
3.0
 40
4.0
 40
4.0
 40
4.0
 40
4.0
 10
20.99243093514201
 20
9.439673966093453
 10
20.99268201121692
 20
9.439292286717542
 10
20.9928573319495
 20
9.438865929282682
 10
20.99301419598427
 20
9.438436746124594
 97
        0
 72
     4
 94
        3
 73
     0
 74
     0
 95
        8
 96
        4
 40
2.0
 40
2.0
 40
2.0
 40
2.0
 40
3.0
 40
3.0
 40
3.0
 40
3.0
 10
20.99301419598427
 20
9.438436746124594
 10
20.9931800398839
 20
9.437982993875264
 10
20.99331910181092
 20
9.437518681210903
 10
20.99340740745703
 20
9.43704361340302
 97
        0
 72
     4
 94
        3
 73
     0
 74
     0
 95
        8
 96
        4
 40
1.0
 40
1.0
 40
1.0
 40
1.0
 40
2.0
 40
2.0
 40
2.0
 40
2.0
 10
20.99340740745703
 20
9.43704361340302
 10
20.99347367022989
 20
9.436687132118095
 10
20.99351989961187
 20
9.436327350102033
 10
20.99354378532002
 20
9.435965375926327
 97
        0
 72
     4
 94
        3
 73
     0
 74
     0
 95
        8
 96
        4
 40
0.0005907136557577
 40
0.0005907136557577
 40
0.0005907136557577
 40
0.0005907136557577
 40
0.9999999999999998
 40
0.9999999999999998
 40
0.9999999999999998
 40
0.9999999999999998
 10
20.99354378532002
 20
9.435965375926327
 10
20.99357546092765
 20
9.435485350301206
 10
20.99358495603914
 20
9.435004351337411
 10
20.99358496724588
 20
9.435003783239594
 97
        0
 72
     1
 10
20.99358496725583
 20
9.435022481210095
 11
20.99358496725583
 21
9.422093767501767
 72
     1
 10
20.99358496725583
 20
9.422093767501763
 11
20.99890566722807
 21
9.422093767501763
 72
     1
 10
20.99890566722806
 20
9.422093767501763
 11
20.99890566722806
 21
9.435003782766216
 72
     4
 94
        3
 73
     0
 74
     0
 95
        8
 96
        4
 40
0.0004833362374916
 40
0.0004833362374916
 40
0.0004833362374916
 40
0.0004833362374916
 40
1.0
 40
1.0
 40
1.0
 40
1.0
 10
20.99890566721303
 20
9.435003783141254
 10
20.99890564662274
 20
9.43500434194668
 10
20.99888433641618
 20
9.435582552506588
 10
20.99884285335869
 20
9.436159556770576
 97
        0
 72
     4
 94
        3
 73
     0
 74
     0
 95
        8
 96
        4
 40
1.0
 40
1.0
 40
1.0
 40
1.0
 40
2.0
 40
2.0
 40
2.0
 40
2.0
 10
20.99884285335869
 20
9.436159556770576
 10
20.99881062235747
 20
9.43660787052272
 10
20.99876165539294
 20
9.4370547323649
 10
20.99871596745885
 20
9.437501876026344
 97
        0
 72
     4
 94
        3
 73
     0
 74
     0
 95
        8
 96
        4
 40
2.0
 40
2.0
 40
2.0
 40
2.0
 40
3.0
 40
3.0
 40
3.0
 40
3.0
 10
20.99871596745885
 20
9.437501876026344
 10
20.99867257616649
 20
9.437926542663246
 10
20.99863069561175
 20
9.43835186836705
 10
20.99854901232715
 20
9.438770735025173
 97
        0
 97
        0
 92
        5
 93
       45
 72
     4
 94
        3
 73
     0
 74
     0
 95
        8
 96
        4
 40
26.0
 40
26.0
 40
26.0
 40
26.0
 40
27.0
 40
27.0
 40
27.0
 40
27.0
 10
20.94269766444788
 20
9.435309166518448
 10
20.94260601433084
 20
9.436285837618243
 10
20.9424298078946
 20
9.437253356693972
 10
20.94214059809644
 20
9.438190914593961
 97
        0
 72
     4
 94
        3
 73
     0
 74
     0
 95
        8
 96
        4
 40
25.0
 40
25.0
 40
25.0
 40
25.0
 40
26.0
 40
26.0
 40
26.0
 40
26.0
 10
20.94214059809644
 20
9.438190914593961
 10
20.94182141743448
 20
9.439225631789994
 10
20.94139523906091
 20
9.440225804228461
 10
20.94084434688662
 20
9.441158365405255
 97
        0
 72
     4
 94
        3
 73
     0
 74
     0
 95
        8
 96
        4
 40
24.0
 40
24.0
 40
24.0
 40
24.0
 40
25.0
 40
25.0
 40
25.0
 40
25.0
 10
20.94084434688662
 20
9.441158365405255
 10
20.94043907190752
 20
9.44184442291224
 10
20.93997024623093
 20
9.442489973910484
 10
20.93943025500693
 20
9.44307595991691
 97
        0
 72
     4
 94
        3
 73
     0
 74
     0
 95
        8
 96
        4
 40
23.0
 40
23.0
 40
23.0
 40
23.0
 40
24.0
 40
24.0
 40
24.0
 40
24.0
 10
20.93943025500693
 20
9.44307595991691
 10
20.93863838095598
 20
9.443935283350484
 10
20.93772426713039
 20
9.444674783465316
 10
20.93671991179832
 20
9.445272087763555
 97
        0
 72
     4
 94
        3
 73
     0
 74
     0
 95
        8
 96
        4
 40
22.0
 40
22.0
 40
22.0
 40
22.0
 40
23.0
 40
23.0
 40
23.0
 40
23.0
 10
20.93671991179832
 20
9.445272087763555
 10
20.93581082236093
 20
9.445812736089022
 10
20.93483221551691
 20
9.446226846345778
 10
20.93380602509805
 20
9.446482636313476
 97
        0
 72
     4
 94
        3
 73
     0
 74
     0
 95
        8
 96
        4
 40
21.0
 40
21.0
 40
21.0
 40
21.0
 40
22.0
 40
22.0
 40
22.0
 40
22.0
 10
20.93380602509805
 20
9.446482636313476
 10
20.93281531047143
 20
9.44672958352501
 10
20.93179543877815
 20
9.44683170210601
 10
20.93077429754183
 20
9.446857584513736
 97
        0
 72
     4
 94
        3
 73
     0
 74
     0
 95
        8
 96
        4
 40
20.0
 40
20.0
 40
20.0
 40
20.0
 40
21.0
 40
21.0
 40
21.0
 40
21.0
 10
20.93077429754183
 20
9.446857584513736
 10
20.92977777951444
 20
9.446882842807923
 10
20.92877833426076
 20
9.44684480105856
 10
20.92779613373742
 20
9.446675466794005
 97
        0
 72
     4
 94
        3
 73
     0
 74
     0
 95
        8
 96
        4
 40
19.0
 40
19.0
 40
19.0
 40
19.0
 40
20.0
 40
20.0
 40
20.0
 40
20.0
 10
20.92779613373742
 20
9.446675466794005
 10
20.92676824910151
 20
9.446498256454018
 10
20.92577085324035
 20
9.446180871363822
 10
20.92482868303696
 20
9.445732738879428
 97
        0
 72
     4
 94
        3
 73
     0
 74
     0
 95
        8
 96
        4
 40
18.0
 40
18.0
 40
18.0
 40
18.0
 40
19.0
 40
19.0
 40
19.0
 40
19.0
 10
20.92482868303696
 20
9.445732738879428
 10
20.92344324284406
 20
9.445073770092788
 10
20.9221895880261
 20
9.444166600122144
 10
20.92113276053197
 20
9.443054534294331
 97
        0
 72
     4
 94
        3
 73
     0
 74
     0
 95
        8
 96
        4
 40
17.0
 40
17.0
 40
17.0
 40
17.0
 40
18.0
 40
18.0
 40
18.0
 40
18.0
 10
20.92113276053197
 20
9.443054534294331
 10
20.92035493888707
 20
9.442236057413195
 10
20.91970900338834
 20
9.441305746466694
 10
20.91919374033097
 20
9.440301339785747
 97
        0
 72
     4
 94
        3
 73
     0
 74
     0
 95
        8
 96
        4
 40
16.0
 40
16.0
 40
16.0
 40
16.0
 40
17.0
 40
17.0
 40
17.0
 40
17.0
 10
20.91919374033097
 20
9.440301339785747
 10
20.91874873780446
 20
9.439433892558099
 10
20.91841346918053
 20
9.438514764813348
 10
20.91817602254639
 20
9.437569571110984
 97
        0
 72
     4
 94
        3
 73
     0
 74
     0
 95
        8
 96
        4
 40
15.0
 40
15.0
 40
15.0
 40
15.0
 40
16.0
 40
16.0
 40
16.0
 40
16.0
 10
20.91817602254639
 20
9.437569571110984
 10
20.91798205110263
 20
9.436797437245699
 10
20.91787079838792
 20
9.436007290640985
 10
20.91782249950075
 20
9.435212751017047
 97
        0
 72
     4
 94
        3
 73
     0
 74
     0
 95
        8
 96
        4
 40
14.0
 40
14.0
 40
14.0
 40
14.0
 40
15.0
 40
15.0
 40
15.0
 40
15.0
 10
20.91782249950075
 20
9.435212751017047
 10
20.91777193849319
 20
9.434380998437305
 10
20.91779716941943
 20
9.433546244506699
 10
20.91787606363926
 20
9.432716664184239
 97
        0
 72
     4
 94
        3
 73
     0
 74
     0
 95
        8
 96
        4
 40
13.0
 40
13.0
 40
13.0
 40
13.0
 40
14.0
 40
14.0
 40
14.0
 40
14.0
 10
20.91787606363926
 20
9.432716664184239
 10
20.91793826607776
 20
9.432062599550038
 10
20.91804037011809
 20
9.431412732304837
 10
20.91820816098402
 20
9.430777643952623
 97
        0
 72
     4
 94
        3
 73
     0
 74
     0
 95
        8
 96
        4
 40
12.0
 40
12.0
 40
12.0
 40
12.0
 40
13.0
 40
13.0
 40
13.0
 40
13.0
 10
20.91820816098402
 20
9.430777643952623
 10
20.91842258610293
 20
9.429966044973738
 10
20.91873565222877
 20
9.429184102239787
 10
20.91910803779871
 20
9.428431536696493
 97
        0
 72
     4
 94
        3
 73
     0
 74
     0
 95
        8
 96
        4
 40
11.0
 40
11.0
 40
11.0
 40
11.0
 40
12.0
 40
12.0
 40
12.0
 40
12.0
 10
20.91910803779871
 20
9.428431536696493
 10
20.91942043530025
 20
9.427800202900355
 10
20.91977589663589
 20
9.427190796004536
 10
20.92019003244937
 20
9.426621070344706
 97
        0
 72
     4
 94
        3
 73
     0
 74
     0
 95
        8
 96
        4
 40
10.0
 40
10.0
 40
10.0
 40
10.0
 40
11.0
 40
11.0
 40
11.0
 40
11.0
 10
20.92019003244937
 20
9.426621070344706
 10
20.92061486917593
 20
9.426036623463687
 10
20.92109709145782
 20
9.425496840427383
 10
20.92161483733796
 20
9.424992721836799
 97
        0
 72
     4
 94
        3
 73
     0
 74
     0
 95
        8
 96
        4
 40
9.0
 40
9.0
 40
9.0
 40
9.0
 40
10.0
 40
10.0
 40
10.0
 40
10.0
 10
20.92161483733796
 20
9.424992721836799
 10
20.92226194275574
 20
9.424362648506305
 10
20.92295874295152
 20
9.423783683570377
 10
20.92371454982839
 20
9.423289383677712
 97
        0
 72
     4
 94
        3
 73
     0
 74
     0
 95
        8
 96
        4
 40
8.0
 40
8.0
 40
8.0
 40
8.0
 40
9.0
 40
9.0
 40
9.0
 40
9.0
 10
20.92371454982839
 20
9.423289383677712
 10
20.92426676533657
 20
9.422928233131317
 10
20.92485159285701
 20
9.422621643969248
 10
20.92546073928088
 20
9.422368081265972
 97
        0
 72
     4
 94
        3
 73
     0
 74
     0
 95
        8
 96
        4
 40
7.0
 40
7.0
 40
7.0
 40
7.0
 40
8.0
 40
8.0
 40
8.0
 40
8.0
 10
20.92546073928088
 20
9.422368081265972
 10
20.92630031499925
 20
9.422018600286376
 10
20.92717695836788
 20
9.421761971844404
 10
20.92807466705685
 20
9.421618183951323
 97
        0
 72
     4
 94
        3
 73
     0
 74
     0
 95
        8
 96
        4
 40
6.0
 40
6.0
 40
6.0
 40
6.0
 40
7.0
 40
7.0
 40
7.0
 40
7.0
 10
20.92807466705685
 20
9.421618183951323
 10
20.92872640723434
 20
9.421513793353355
 10
20.92938588333237
 20
9.421466559992495
 10
20.93004582570322
 20
9.421446778854972
 97
        0
 72
     4
 94
        3
 73
     0
 74
     0
 95
        8
 96
        4
 40
5.0
 40
5.0
 40
5.0
 40
5.0
 40
6.0
 40
6.0
 40
6.0
 40
6.0
 10
20.93004582570322
 20
9.421446778854972
 10
20.93047086772873
 20
9.421434038629199
 10
20.93089624990219
 20
9.421430921638815
 10
20.93132065113386
 20
9.421457491675282
 97
        0
 72
     4
 94
        3
 73
     0
 74
     0
 95
        8
 96
        4
 40
4.0
 40
4.0
 40
4.0
 40
4.0
 40
5.0
 40
5.0
 40
5.0
 40
5.0
 10
20.93132065113386
 20
9.421457491675282
 10
20.93224697148043
 20
9.421515484827748
 10
20.9331662552388
 20
9.421673602298938
 10
20.93405241990999
 20
9.421950281336988
 97
        0
 72
     4
 94
        3
 73
     0
 74
     0
 95
        8
 96
        4
 40
3.0
 40
3.0
 40
3.0
 40
3.0
 40
4.0
 40
4.0
 40
4.0
 40
4.0
 10
20.93405241990999
 20
9.421950281336988
 10
20.93507776678263
 20
9.422270415952423
 10
20.93604935418551
 20
9.42273787006512
 10
20.93694488096921
 20
9.423332234953136
 97
        0
 72
     4
 94
        3
 73
     0
 74
     0
 95
        8
 96
        4
 40
2.0
 40
2.0
 40
2.0
 40
2.0
 40
3.0
 40
3.0
 40
3.0
 40
3.0
 10
20.93694488096921
 20
9.423332234953136
 10
20.93787284651492
 20
9.423948129583893
 10
20.93871013176368
 20
9.424686728120178
 10
20.93945168055325
 20
9.425517649974819
 97
        0
 72
     4
 94
        3
 73
     0
 74
     0
 95
        8
 96
        4
 40
1.0
 40
1.0
 40
1.0
 40
1.0
 40
2.0
 40
2.0
 40
2.0
 40
2.0
 10
20.93945168055325
 20
9.425517649974819
 10
20.94014545096468
 20
9.426295035097622
 10
20.94075010773147
 20
9.427148585048028
 10
20.94124072128221
 20
9.4280673008343
 97
        0
 72
     4
 94
        3
 73
     0
 74
     0
 95
        8
 96
        4
 40
0.5001012604507049
 40
0.5001012604507049
 40
0.5001012604507049
 40
0.5001012604507049
 40
1.0
 40
1.0
 40
1.0
 40
1.0
 10
20.94124072128221
 20
9.4280673008343
 10
20.94148417921863
 20
9.428523196618527
 10
20.94169572100469
 20
9.428994462068557
 10
20.94184641649312
 20
9.429351802844736
 97
        0
 72
     4
 94
        3
 73
     0
 74
     0
 95
        8
 96
        4
 40
0.0003950025069862
 40
0.0003950025069862
 40
0.0003950025069862
 40
0.0003950025069862
 40
0.5001012604507049
 40
0.5001012604507049
 40
0.5001012604507049
 40
0.5001012604507049
 10
20.94184641649312
 20
9.429351802844736
 10
20.94199705395755
 20
9.429709006030007
 10
20.94208689197202
 20
9.429952372255939
 10
20.94208703379425
 20
9.429952756476312
 97
        0
 72
     1
 10
20.9420870339666
 20
9.429952756931896
 11
20.93690266759902
 21
9.429952756931896
 72
     4
 94
        3
 73
     0
 74
     0
 95
        8
 96
        4
 40
10.0
 40
10.0
 40
10.0
 40
10.0
 40
11.0
 40
11.0
 40
11.0
 40
11.0
 10
20.93690266761911
 20
9.429952756965008
 10
20.93687017984439
 20
9.429898183271118
 10
20.93657837561165
 20
9.429411424051394
 10
20.93623930403669
 20
9.428958274308014
 97
        0
 72
     4
 94
        3
 73
     0
 74
     0
 95
        8
 96
        4
 40
9.0
 40
9.0
 40
9.0
 40
9.0
 40
10.0
 40
10.0
 40
10.0
 40
10.0
 10
20.93623930403669
 20
9.428958274308014
 10
20.93588671121429
 20
9.428487054191931
 10
20.93548784737996
 20
9.428051414326773
 10
20.93503974258786
 20
9.427669856458152
 97
        0
 72
     4
 94
        3
 73
     0
 74
     0
 95
        8
 96
        4
 40
8.0
 40
8.0
 40
8.0
 40
8.0
 40
9.0
 40
9.0
 40
9.0
 40
9.0
 10
20.93503974258786
 20
9.427669856458152
 10
20.93459866582882
 20
9.427294282906686
 10
20.93411527463059
 20
9.426971303641591
 10
20.93359582602699
 20
9.426714650101773
 97
        0
 72
     4
 94
        3
 73
     0
 74
     0
 95
        8
 96
        4
 40
7.0
 40
7.0
 40
7.0
 40
7.0
 40
8.0
 40
8.0
 40
8.0
 40
8.0
 10
20.93359582602699
 20
9.426714650101773
 10
20.93314918806118
 20
9.426493971454858
 10
20.93268033553574
 20
9.426321778868427
 10
20.932196337666
 20
9.426203725791452
 97
        0
 72
     4
 94
        3
 73
     0
 74
     0
 95
        8
 96
        4
 40
6.0
 40
6.0
 40
6.0
 40
6.0
 40
7.0
 40
7.0
 40
7.0
 40
7.0
 10
20.932196337666
 20
9.426203725791452
 10
20.93163638810165
 20
9.426067147155306
 10
20.93106212270641
 20
9.425998198243545
 10
20.93048585189393
 20
9.425981584776764
 97
        0
 72
     4
 94
        3
 73
     0
 74
     0
 95
        8
 96
        4
 40
5.0
 40
5.0
 40
5.0
 40
5.0
 40
6.0
 40
6.0
 40
6.0
 40
6.0
 10
20.93048585189393
 20
9.425981584776764
 10
20.92988288108774
 20
9.425964201568588
 10
20.92927918462729
 20
9.426002573139614
 10
20.92868650972102
 20
9.426114869384717
 97
        0
 72
     4
 94
        3
 73
     0
 74
     0
 95
        8
 96
        4
 40
4.0
 40
4.0
 40
4.0
 40
4.0
 40
5.0
 40
5.0
 40
5.0
 40
5.0
 10
20.92868650972102
 20
9.426114869384717
 10
20.92800288407307
 20
9.426244398393832
 10
20.92733942035761
 20
9.426463259367663
 10
20.92670945473628
 20
9.426759078309515
 97
        0
 72
     4
 94
        3
 73
     0
 74
     0
 95
        8
 96
        4
 40
3.0
 40
3.0
 40
3.0
 40
3.0
 40
4.0
 40
4.0
 40
4.0
 40
4.0
 10
20.92670945473628
 20
9.426759078309515
 10
20.92609996391693
 20
9.427045282704042
 10
20.92552533495518
 20
9.427401654265876
 10
20.92502118306564
 20
9.427847569256883
 97
        0
 72
     4
 94
        3
 73
     0
 74
     0
 95
        8
 96
        4
 40
2.0
 40
2.0
 40
2.0
 40
2.0
 40
3.0
 40
3.0
 40
3.0
 40
3.0
 10
20.92502118306564
 20
9.427847569256883
 10
20.92452196942807
 20
9.428289116435946
 10
20.924106470965
 20
9.428814031840488
 10
20.92375497931261
 20
9.429380342220072
 97
        0
 72
     4
 94
        3
 73
     0
 74
     0
 95
        8
 96
        4
 40
1.0
 40
1.0
 40
1.0
 40
1.0
 40
2.0
 40
2.0
 40
2.0
 40
2.0
 10
20.92375497931261
 20
9.429380342220072
 10
20.92340950028301
 20
9.429936965283786
 10
20.9231321399825
 20
9.430533617461858
 10
20.92293305757818
 20
9.431157470294721
 97
        0
 72
     4
 94
        3
 73
     0
 74
     0
 95
        8
 96
        4
 40
0.500101699519294
 40
0.500101699519294
 40
0.500101699519294
 40
0.500101699519294
 40
0.9999999999999998
 40
0.9999999999999998
 40
0.9999999999999998
 40
0.9999999999999998
 10
20.92293305757818
 20
9.431157470294721
 10
20.92283901218909
 20
9.431452174804476
 10
20.92276475017099
 20
9.431752324859488
 10
20.92271399396066
 20
9.431978829862911
 97
        0
 72
     4
 94
        3
 73
     0
 74
     0
 95
        8
 96
        4
 40
0.0003976553359907
 40
0.0003976553359907
 40
0.0003976553359907
 40
0.0003976553359907
 40
0.5001016995192941
 40
0.5001016995192941
 40
0.5001016995192941
 40
0.5001016995192941
 10
20.92271399396066
 20
9.431978829862911
 10
20.92266325747377
 20
9.432205246848411
 10
20.92263600852991
 20
9.432358076006932
 10
20.92263596522807
 20
9.432358318907672
 97
        0
 72
     1
 10
20.92263537069801
 20
9.432358319197618
 11
20.94276194173014
 21
9.432358319197618
 72
     4
 94
        3
 73
     0
 74
     0
 95
        8
 96
        4
 40
28.49978769100552
 40
28.49978769100552
 40
28.49978769100552
 40
28.49978769100552
 40
28.99915271130339
 40
28.99915271130339
 40
28.99915271130339
 40
28.99915271130339
 10
20.94276194174722
 20
9.432358320032518
 10
20.9427619504107
 20
9.432358707158883
 10
20.94276451043945
 20
9.432473125924076
 10
20.94276712733318
 20
9.432644592348848
 97
        0
 72
     4
 94
        3
 73
     0
 74
     0
 95
        8
 96
        4
 40
28.0
 40
28.0
 40
28.0
 40
28.0
 40
28.49978769100552
 40
28.49978769100552
 40
28.49978769100552
 40
28.49978769100552
 10
20.94276712733318
 20
9.432644592348848
 10
20.94276974644191
 20
9.432816203905574
 10
20.94277242251195
 20
9.4330449597349
 10
20.94277265470339
 20
9.433273731038523
 97
        0
 72
     4
 94
        3
 73
     0
 74
     0
 95
        8
 96
        4
 40
27.0
 40
27.0
 40
27.0
 40
27.0
 40
28.0
 40
28.0
 40
28.0
 40
28.0
 10
20.94277265470339
 20
9.433273731038523
 10
20.94277334414284
 20
9.433953014699694
 10
20.94276113074386
 20
9.434632836806924
 10
20.94269766444788
 20
9.435309166518448
 97
        0
 97
        0
 92
       20
 93
       14
 72
     1
 10
20.93755888086906
 20
9.436625785614268
 11
20.92279575962002
 21
9.436625785614268
 72
     4
 94
        3
 73
     0
 74
     0
 95
        8
 96
        4
 40
0.0003959641650458
 40
0.0003959641650458
 40
0.0003959641650458
 40
0.0003959641650458
 40
1.0
 40
1.0
 40
1.0
 40
1.0
 10
20.92279575972018
 20
9.436625785966812
 10
20.92279591992451
 20
9.436626379179042
 10
20.92299827708334
 20
9.437375592787702
 10
20.92330483277144
 20
9.438085135178212
 97
        0
 72
     4
 94
        3
 73
     0
 74
     0
 95
        8
 96
        4
 40
1.0
 40
1.0
 40
1.0
 40
1.0
 40
2.0
 40
2.0
 40
2.0
 40
2.0
 10
20.92330483277144
 20
9.438085135178212
 10
20.92354436718114
 20
9.438639552610863
 10
20.92384301499436
 20
9.439167472868037
 10
20.92421499385114
 20
9.439643207534928
 97
        0
 72
     4
 94
        3
 73
     0
 74
     0
 95
        8
 96
        4
 40
2.0
 40
2.0
 40
2.0
 40
2.0
 40
3.0
 40
3.0
 40
3.0
 40
3.0
 10
20.92421499385114
 20
9.439643207534928
 10
20.92462459030742
 20
9.44016705245302
 10
20.92511233476805
 20
9.440623854355647
 10
20.92564965453599
 20
9.441016162384826
 97
        0
 72
     4
 94
        3
 73
     0
 74
     0
 95
        8
 96
        4
 40
3.0
 40
3.0
 40
3.0
 40
3.0
 40
4.0
 40
4.0
 40
4.0
 40
4.0
 10
20.92564965453599
 20
9.441016162384826
 10
20.92609045266235
 20
9.44133799801115
 10
20.92656468332746
 20
9.441609885878376
 10
20.92706888876211
 20
9.441818338252247
 97
        0
 72
     4
 94
        3
 73
     0
 74
     0
 95
        8
 96
        4
 40
4.0
 40
4.0
 40
4.0
 40
4.0
 40
5.0
 40
5.0
 40
5.0
 40
5.0
 10
20.92706888876211
 20
9.441818338252247
 10
20.92767050732789
 20
9.442067063889894
 10
20.92830554585209
 20
9.442226757655047
 10
20.92895091675834
 20
9.44231198494063
 97
        0
 72
     4
 94
        3
 73
     0
 74
     0
 95
        8
 96
        4
 40
5.0
 40
5.0
 40
5.0
 40
5.0
 40
6.0
 40
6.0
 40
6.0
 40
6.0
 10
20.92895091675834
 20
9.44231198494063
 10
20.92937522678815
 20
9.442368019062783
 10
20.92980325863931
 20
9.4423856900504
 10
20.93023131285793
 20
9.442389117233917
 97
        0
 72
     4
 94
        3
 73
     0
 74
     0
 95
        8
 96
        4
 40
6.0
 40
6.0
 40
6.0
 40
6.0
 40
7.0
 40
7.0
 40
7.0
 40
7.0
 10
20.93023131285793
 20
9.442389117233917
 10
20.93069560928163
 20
9.442392834587963
 10
20.93116090531072
 20
9.442382054334983
 10
20.93161969415539
 20
9.442311984939919
 97
        0
 72
     4
 94
        3
 73
     0
 74
     0
 95
        8
 96
        4
 40
7.0
 40
7.0
 40
7.0
 40
7.0
 40
8.0
 40
8.0
 40
8.0
 40
8.0
 10
20.93161969415539
 20
9.442311984939919
 10
20.93217634221133
 20
9.442226969811626
 10
20.93271630224689
 20
9.442058536809113
 10
20.93323947235189
 20
9.441849191165717
 97
        0
 72
     4
 94
        3
 73
     0
 74
     0
 95
        8
 96
        4
 40
8.0
 40
8.0
 40
8.0
 40
8.0
 40
9.0
 40
9.0
 40
9.0
 40
9.0
 10
20.93323947235189
 20
9.441849191165717
 10
20.93374343751589
 20
9.441647530347623
 10
20.93423272771048
 20
9.441408809281954
 10
20.93467413303748
 20
9.441093294664126
 97
        0
 72
     4
 94
        3
 73
     0
 74
     0
 95
        8
 96
        4
 40
9.0
 40
9.0
 40
9.0
 40
9.0
 40
10.0
 40
10.0
 40
10.0
 40
10.0
 10
20.93467413303748
 20
9.441093294664126
 10
20.93516756690795
 20
9.440740590268431
 10
20.9355914123542
 20
9.440302614752466
 10
20.93596995561106
 20
9.439828325022743
 97
        0
 72
     4
 94
        3
 73
     0
 74
     0
 95
        8
 96
        4
 40
10.0
 40
10.0
 40
10.0
 40
10.0
 40
11.0
 40
11.0
 40
11.0
 40
11.0
 10
20.93596995561106
 20
9.439828325022743
 10
20.93635043194109
 20
9.439351613280448
 10
20.93667408015438
 20
9.438833411920411
 10
20.93694182250988
 20
9.438285679201527
 97
        0
 72
     4
 94
        3
 73
     0
 74
     0
 95
        8
 96
        4
 40
11.0
 40
11.0
 40
11.0
 40
11.0
 40
12.0
 40
12.0
 40
12.0
 40
12.0
 10
20.93694182250988
 20
9.438285679201527
 10
20.93714588911118
 20
9.437868210869851
 10
20.93731165235539
 20
9.43743309392974
 10
20.93745089563868
 20
9.436989856577724
 97
        0
 72
     4
 94
        3
 73
     0
 74
     0
 95
        8
 96
        4
 40
12.0
 40
12.0
 40
12.0
 40
12.0
 40
12.99917607237176
 40
12.99917607237176
 40
12.99917607237176
 40
12.99917607237176
 10
20.93745089563868
 20
9.436989856577724
 10
20.93750775639145
 20
9.436808858192545
 10
20.93755879665378
 20
9.436626087013067
 10
20.93755888072448
 20
9.436625785955483
 97
        0
 97
        0
 75
     1
 76
     1
 47
0.0000168773550567
 98
        3
 10
20.99583765471525
 20
9.439259178550244
 10
20.94070890908708
 20
9.435039073868892
 10
20.94070890908708
 20
9.435039073868892
450
        0
451
        0
460
0.0
461
0.0
452
        0
462
1.0
453
        2
463
0.0
 63
     5
421
      255
463
1.0
 63
     2
421
 16776960
470
LINEAR
1001
GradientColor1ACI
1070
     5
1001
GradientColor2ACI
1070
     2
1001
ACAD
1010
0.0
1020
0.0
1030
0.0
  0
HATCH
  5
4D3
330
1F
100
AcDbEntity
  8
000_CELESTE_Num_Penna__91
  6
Continuous
100
AcDbHatch
 10
0.0
 20
0.0
 30
0.0
210
0.0
220
0.0
230
1.0
  2
SOLID
 70
     1
 71
     0
 91
        1
 92
        3
 72
     0
 73
     1
 93
       12
 10
21.02165210330051
 20
9.422093767501763
 10
21.02846246808141
 20
9.422093767501763
 10
21.03513641303502
 20
9.430643537150873
 10
21.04181035798848
 20
9.422093767501763
 10
21.04862072276905
 20
9.422093767501763
 10
21.03880438376183
 20
9.434177584222963
 10
21.04770318210112
 20
9.446261400944178
 10
21.04169879587161
 20
9.446261400944178
 10
21.03513641303502
 20
9.437753929688797
 10
21.02857403019829
 20
9.446261400944178
 10
21.0225696439687
 20
9.446261400944178
 10
21.03146844230818
 20
9.434177584222963
 97
        0
 75
     0
 76
     1
 98
        0
450
        0
451
        0
460
0.0
461
0.0
452
        0
462
0.0
453
        0
470

  0
HATCH
  5
4D4
330
1F
100
AcDbEntity
  8
000_CELESTE_Num_Penna__91
  6
Continuous
100
AcDbHatch
 10
0.0
 20
0.0
 30
0.0
210
0.0
220
0.0
230
1.0
  2
SOLID
 70
     1
 71
     0
 91
        1
 92
        3
 72
     0
 73
     1
 93
        6
 10
20.96628772963772
 20
9.422093767501763
 10
20.95647139062993
 20
9.434177584222963
 10
20.96537018896953
 20
9.446261400944178
 10
20.95936580273994
 20
9.446261400944178
 10
20.95004474492242
 20
9.434177584222963
 10
20.95947736485695
 20
9.422093767501763
 97
        0
 75
     0
 76
     1
 98
        0
450
        0
451
        0
460
0.0
461
0.0
452
        0
462
0.0
453
        0
470

  0
HATCH
  5
4D5
330
1F
100
AcDbEntity
  8
000_CELESTE_Num_Penna__91
  6
Continuous
100
AcDbHatch
 10
0.0
 20
0.0
 30
0.0
210
0.0
220
0.0
230
1.0
  2
SOLID
 70
     1
 71
     0
 91
        1
 92
        3
 72
     0
 73
     1
 93
        4
 10
20.97334611910739
 20
9.422093767501763
 10
20.97334611910739
 20
9.446261400944178
 10
20.96802541913536
 20
9.446261400944178
 10
20.96802541913536
 20
9.422093767501763
 97
        0
 75
     0
 76
     1
 98
        0
450
        0
451
        0
460
0.0
461
0.0
452
        0
462
0.0
453
        0
470

  0
HATCH
  5
4D6
330
1F
100
AcDbEntity
  8
000_CELESTE_Num_Penna__91
  6
Continuous
100
AcDbHatch
 10
0.0
 20
0.0
 30
0.0
210
0.0
220
0.0
230
1.0
  2
SOLID
 70
     1
 71
     0
 91
        1
 92
        3
 72
     0
 73
     1
 93
        4
 10
20.95004474492242
 20
9.422093767501763
 10
20.95004474492242
 20
9.446261400944178
 10
20.94472404495022
 20
9.446261400944178
 10
20.94472404495022
 20
9.422093767501763
 97
        0
 75
     0
 76
     1
 98
        0
450
        0
451
        0
460
0.0
461
0.0
452
        0
462
0.0
453
        0
470

  0
HATCH
  5
4D7
330
1F
100
AcDbEntity
  8
0
 62
     7
100
AcDbHatch
 10
0.0
 20
0.0
 30
0.0
210
0.0
220
0.0
230
1.0
  2
SOLID
 70
     1
 71
     0
 91
        3
 92
        5
 93
       40
 72
     4
 94
        3
 73
     0
 74
     0
 95
        8
 96
        4
 40
1.0
 40
1.0
 40
1.0
 40
1.0
 40
2.0
 40
2.0
 40
2.0
 40
2.0
 10
21.02191273057335
 20
9.425517649974819
 10
21.02260650098478
 20
9.426295035097622
 10
21.02321115775152
 20
9.427148585048028
 10
21.02370177130251
 20
9.4280673008343
 97
        0
 72
     4
 94
        3
 73
     0
 74
     0
 95
        8
 96
        4
 40
0.0003950025069861
 40
0.0003950025069861
 40
0.0003950025069861
 40
0.0003950025069861
 40
0.9999999999999998
 40
0.9999999999999998
 40
0.9999999999999998
 40
0.9999999999999998
 10
21.02370177130251
 20
9.4280673008343
 10
21.02418859343422
 20
9.428978916864108
 10
21.02454780011544
 20
9.429951987887562
 10
21.02454808381455
 20
9.429952756476312
 97
        0
 72
     1
 10
21.02454808398687
 20
9.429952756931896
 11
21.01936371760225
 21
9.429952756931896
 72
     4
 94
        3
 73
     0
 74
     0
 95
        8
 96
        4
 40
10.0
 40
10.0
 40
10.0
 40
10.0
 40
11.0
 40
11.0
 40
11.0
 40
11.0
 10
21.01936371762235
 20
9.429952756965008
 10
21.01933122984852
 20
9.429898183271118
 10
21.01903942562785
 20
9.429411424051068
 10
21.01870035405284
 20
9.428958274308014
 97
        0
 72
     4
 94
        3
 73
     0
 74
     0
 95
        8
 96
        4
 40
9.0
 40
9.0
 40
9.0
 40
9.0
 40
10.0
 40
10.0
 40
10.0
 40
10.0
 10
21.01870035405284
 20
9.428958274308014
 10
21.01834776123042
 20
9.428487054191931
 10
21.017948897396
 20
9.428051414326773
 10
21.0175007926039
 20
9.427669856458152
 97
        0
 72
     4
 94
        3
 73
     0
 74
     0
 95
        8
 96
        4
 40
8.0
 40
8.0
 40
8.0
 40
8.0
 40
9.0
 40
9.0
 40
9.0
 40
9.0
 10
21.0175007926039
 20
9.427669856458152
 10
21.01705971584483
 20
9.427294282906686
 10
21.01657632465089
 20
9.426971303641494
 10
21.01605687604757
 20
9.426714650101773
 97
        0
 72
     4
 94
        3
 73
     0
 74
     0
 95
        8
 96
        4
 40
7.0
 40
7.0
 40
7.0
 40
7.0
 40
8.0
 40
8.0
 40
8.0
 40
8.0
 10
21.01605687604757
 20
9.426714650101773
 10
21.01561023808131
 20
9.426493971454759
 10
21.01514138555558
 20
9.426321778868668
 10
21.01465738768536
 20
9.426203725791452
 97
        0
 72
     4
 94
        3
 73
     0
 74
     0
 95
        8
 96
        4
 40
6.0
 40
6.0
 40
6.0
 40
6.0
 40
7.0
 40
7.0
 40
7.0
 40
7.0
 10
21.01465738768536
 20
9.426203725791452
 10
21.01409743812147
 20
9.426067147155123
 10
21.0135231727285
 20
9.425998198243545
 10
21.01294690191642
 20
9.425981584776764
 97
        0
 72
     4
 94
        3
 73
     0
 74
     0
 95
        8
 96
        4
 40
5.0
 40
5.0
 40
5.0
 40
5.0
 40
6.0
 40
6.0
 40
6.0
 40
6.0
 10
21.01294690191642
 20
9.425981584776764
 10
21.01234393111003
 20
9.42596420156849
 10
21.01174023464654
 20
9.426002573139614
 10
21.0111475597399
 20
9.426114869384717
 97
        0
 72
     4
 94
        3
 73
     0
 74
     0
 95
        8
 96
        4
 40
4.0
 40
4.0
 40
4.0
 40
4.0
 40
5.0
 40
5.0
 40
5.0
 40
5.0
 10
21.0111475597399
 20
9.426114869384717
 10
21.01046393409214
 20
9.426244398393707
 10
21.00980047037808
 20
9.426463259367663
 10
21.00917050475704
 20
9.426759078309515
 97
        0
 72
     4
 94
        3
 73
     0
 74
     0
 95
        8
 96
        4
 40
3.0
 40
3.0
 40
3.0
 40
3.0
 40
4.0
 40
4.0
 40
4.0
 40
4.0
 10
21.00917050475704
 20
9.426759078309515
 10
21.00856101393743
 20
9.427045282704042
 10
21.00798638497577
 20
9.427401654265876
 10
21.00748223308603
 20
9.427847569256883
 97
        0
 72
     4
 94
        3
 73
     0
 74
     0
 95
        8
 96
        4
 40
2.0
 40
2.0
 40
2.0
 40
2.0
 40
3.0
 40
3.0
 40
3.0
 40
3.0
 10
21.00748223308603
 20
9.427847569256883
 10
21.00698301944837
 20
9.428289116435946
 10
21.00656752098513
 20
9.428814031840062
 10
21.00621602933265
 20
9.429380342220072
 97
        0
 72
     4
 94
        3
 73
     0
 74
     0
 95
        8
 96
        4
 40
1.0
 40
1.0
 40
1.0
 40
1.0
 40
2.0
 40
2.0
 40
2.0
 40
2.0
 10
21.00621602933265
 20
9.429380342220072
 10
21.00587055030343
 20
9.429936965284026
 10
21.0055931900026
 20
9.430533617461858
 10
21.00539410759828
 20
9.431157470294721
 97
        0
 72
     4
 94
        3
 73
     0
 74
     0
 95
        8
 96
        4
 40
0.0003976553359906
 40
0.0003976553359906
 40
0.0003976553359906
 40
0.0003976553359906
 40
0.9999999999999998
 40
0.9999999999999998
 40
0.9999999999999998
 40
0.9999999999999998
 10
21.00539410759828
 20
9.431157470294721
 10
21.00520605336539
 20
9.431746764794523
 10
21.0050971018691
 20
9.432357833011792
 10
21.00509701524854
 20
9.432358318907672
 97
        0
 72
     1
 10
21.00509701519326
 20
9.432358319197618
 11
21.02522299149894
 21
9.432358319197618
 72
     4
 94
        3
 73
     0
 74
     0
 95
        8
 96
        4
 40
28.0
 40
28.0
 40
28.0
 40
28.0
 40
28.99915270576956
 40
28.99915270576956
 40
28.99915270576956
 40
28.99915270576956
 10
21.02522299151599
 20
9.432358320032532
 10
21.02522300885241
 20
9.432359094617963
 10
21.02523324026936
 20
9.432816381905823
 10
21.02523370446062
 20
9.433273731038523
 97
        0
 72
     4
 94
        3
 73
     0
 74
     0
 95
        8
 96
        4
 40
27.0
 40
27.0
 40
27.0
 40
27.0
 40
28.0
 40
28.0
 40
28.0
 40
28.0
 10
21.02523370446062
 20
9.433273731038523
 10
21.02523439390655
 20
9.433953014699694
 10
21.02522218105159
 20
9.434632836807962
 10
21.02515871474964
 20
9.435309166518448
 97
        0
 72
     4
 94
        3
 73
     0
 74
     0
 95
        8
 96
        4
 40
26.0
 40
26.0
 40
26.0
 40
26.0
 40
27.0
 40
27.0
 40
27.0
 40
27.0
 10
21.02515871474964
 20
9.435309166518448
 10
21.02506706462387
 20
9.436285837618243
 10
21.02489085796228
 20
9.437253356692053
 10
21.02460164816299
 20
9.438190914593961
 97
        0
 72
     4
 94
        3
 73
     0
 74
     0
 95
        8
 96
        4
 40
25.0
 40
25.0
 40
25.0
 40
25.0
 40
26.0
 40
26.0
 40
26.0
 40
26.0
 10
21.02460164816299
 20
9.438190914593961
 10
21.02428246750017
 20
9.439225631789994
 10
21.02385628920473
 20
9.440225804230292
 10
21.02330539702697
 20
9.441158365405255
 97
        0
 72
     4
 94
        3
 73
     0
 74
     0
 95
        8
 96
        4
 40
24.0
 40
24.0
 40
24.0
 40
24.0
 40
25.0
 40
25.0
 40
25.0
 40
25.0
 10
21.02330539702697
 20
9.441158365405255
 10
21.02290012204424
 20
9.44184442291224
 10
21.02243129628664
 20
9.442489973909033
 10
21.02189130506085
 20
9.44307595991691
 97
        0
 72
     4
 94
        3
 73
     0
 74
     0
 95
        8
 96
        4
 40
23.0
 40
23.0
 40
23.0
 40
23.0
 40
24.0
 40
24.0
 40
24.0
 40
24.0
 10
21.02189130506085
 20
9.44307595991691
 10
21.02109943100865
 20
9.443935283350484
 10
21.02018531710695
 20
9.444674783463613
 10
21.01918096177493
 20
9.445272087763555
 97
        0
 72
     4
 94
        3
 73
     0
 74
     0
 95
        8
 96
        4
 40
22.0
 40
22.0
 40
22.0
 40
22.0
 40
23.0
 40
23.0
 40
23.0
 40
23.0
 10
21.01918096177493
 20
9.445272087763555
 10
21.01827187234002
 20
9.445812736089022
 10
21.01729326548298
 20
9.44622684634602
 10
21.01626707506637
 20
9.446482636313476
 97
        0
 72
     4
 94
        3
 73
     0
 74
     0
 95
        8
 96
        4
 40
21.0
 40
21.0
 40
21.0
 40
21.0
 40
22.0
 40
22.0
 40
22.0
 40
22.0
 10
21.01626707506637
 20
9.446482636313476
 10
21.01527636044125
 20
9.44672958352501
 10
21.01425648858736
 20
9.446831702105884
 10
21.01323534735192
 20
9.446857584513736
 97
        0
 72
     4
 94
        3
 73
     0
 74
     0
 95
        8
 96
        4
 40
20.0
 40
20.0
 40
20.0
 40
20.0
 40
21.0
 40
21.0
 40
21.0
 40
21.0
 10
21.01323534735192
 20
9.446857584513736
 10
21.01223882933073
 20
9.446882842808122
 10
21.01123938431044
 20
9.446844801057324
 10
21.01025718379248
 20
9.446675466794005
 97
        0
 72
     4
 94
        3
 73
     0
 74
     0
 95
        8
 96
        4
 40
19.0
 40
19.0
 40
19.0
 40
19.0
 40
20.0
 40
20.0
 40
20.0
 40
20.0
 10
21.01025718379248
 20
9.446675466794005
 10
21.00922929915498
 20
9.446498256454018
 10
21.00823190324169
 20
9.446180871364404
 10
21.00728973303697
 20
9.445732738879428
 97
        0
 72
     4
 94
        3
 73
     0
 74
     0
 95
        8
 96
        4
 40
18.0
 40
18.0
 40
18.0
 40
18.0
 40
19.0
 40
19.0
 40
19.0
 40
19.0
 10
21.00728973303697
 20
9.445732738879428
 10
21.00590429284446
 20
9.445073770092788
 10
21.0046506380188
 20
9.444166600122573
 10
21.00359381052539
 20
9.443054534294331
 97
        0
 72
     4
 94
        3
 73
     0
 74
     0
 95
        8
 96
        4
 40
17.0
 40
17.0
 40
17.0
 40
17.0
 40
18.0
 40
18.0
 40
18.0
 40
18.0
 10
21.00359381052539
 20
9.443054534294331
 10
21.00281598888139
 20
9.442236057413195
 10
21.00217005345493
 20
9.441305746465559
 10
21.001654790396
 20
9.440301339785747
 97
        0
 72
     4
 94
        3
 73
     0
 74
     0
 95
        8
 96
        4
 40
16.0
 40
16.0
 40
16.0
 40
16.0
 40
17.0
 40
17.0
 40
17.0
 40
17.0
 10
21.001654790396
 20
9.440301339785747
 10
21.0012097878676
 20
9.439433892558099
 10
21.00087451918804
 20
9.438514764814057
 10
21.00063707255478
 20
9.437569571110984
 97
        0
 72
     4
 94
        3
 73
     0
 74
     0
 95
        8
 96
        4
 40
15.0
 40
15.0
 40
15.0
 40
15.0
 40
16.0
 40
16.0
 40
16.0
 40
16.0
 10
21.00063707255478
 20
9.437569571110984
 10
21.00044310111173
 20
9.436797437245699
 10
21.00033184845947
 20
9.436007290640985
 10
21.00028354957158
 20
9.435212751017047
 97
        0
 72
     4
 94
        3
 73
     0
 74
     0
 95
        8
 96
        4
 40
14.0
 40
14.0
 40
14.0
 40
14.0
 40
15.0
 40
15.0
 40
15.0
 40
15.0
 10
21.00028354957158
 20
9.435212751017047
 10
21.00023298856351
 20
9.434380998437305
 10
21.00025821942933
 20
9.433546244506699
 10
21.00033711365
 20
9.432716664184239
 97
        0
 72
     4
 94
        3
 73
     0
 74
     0
 95
        8
 96
        4
 40
13.0
 40
13.0
 40
13.0
 40
13.0
 40
14.0
 40
14.0
 40
14.0
 40
14.0
 10
21.00033711365
 20
9.432716664184239
 10
21.00039931608941
 20
9.432062599550038
 10
21.00050142016585
 20
9.43141273230502
 10
21.00066921103121
 20
9.430777643952623
 97
        0
 72
     4
 94
        3
 73
     0
 74
     0
 95
        8
 96
        4
 40
12.0
 40
12.0
 40
12.0
 40
12.0
 40
13.0
 40
13.0
 40
13.0
 40
13.0
 10
21.00066921103121
 20
9.430777643952623
 10
21.00088363614941
 20
9.429966044973738
 10
21.00119670223296
 20
9.429184102239359
 10
21.00156908780309
 20
9.428431536696493
 97
        0
 72
     4
 94
        3
 73
     0
 74
     0
 95
        8
 96
        4
 40
11.0
 40
11.0
 40
11.0
 40
11.0
 40
12.0
 40
12.0
 40
12.0
 40
12.0
 10
21.00156908780309
 20
9.428431536696493
 10
21.00188148530512
 20
9.427800202900225
 10
21.00223694666926
 20
9.427190796005136
 10
21.00265108248192
 20
9.426621070344706
 97
        0
 72
     4
 94
        3
 73
     0
 74
     0
 95
        8
 96
        4
 40
10.0
 40
10.0
 40
10.0
 40
10.0
 40
11.0
 40
11.0
 40
11.0
 40
11.0
 10
21.00265108248192
 20
9.426621070344706
 10
21.00307591920756
 20
9.426036623463687
 10
21.00355814149339
 20
9.425496840427056
 10
21.00407588737263
 20
9.424992721836799
 97
        0
 72
     4
 94
        3
 73
     0
 74
     0
 95
        8
 96
        4
 40
9.0
 40
9.0
 40
9.0
 40
9.0
 40
10.0
 40
10.0
 40
10.0
 40
10.0
 10
21.00407588737263
 20
9.424992721836799
 10
21.00472299278965
 20
9.424362648506305
 10
21.00541979297088
 20
9.423783683570377
 10
21.00617559984698
 20
9.423289383677712
 97
        0
 72
     4
 94
        3
 73
     0
 74
     0
 95
        8
 96
        4
 40
8.0
 40
8.0
 40
8.0
 40
8.0
 40
9.0
 40
9.0
 40
9.0
 40
9.0
 10
21.00617559984698
 20
9.423289383677712
 10
21.00672781535525
 20
9.422928233131317
 10
21.00731264288518
 20
9.42262164396935
 10
21.00792178930894
 20
9.422368081265972
 97
        0
 72
     4
 94
        3
 73
     0
 74
     0
 95
        8
 96
        4
 40
7.716585890153695
 40
7.716585890153695
 40
7.716585890153695
 40
7.716585890153695
 40
8.0
 40
8.0
 40
8.0
 40
8.0
 10
21.00792178930894
 20
9.422368081265972
 10
21.00815973691366
 20
9.422269033425195
 10
21.0084006619235
 20
9.422177443830603
 10
21.00864420004845
 20
9.422093767505854
 97
        0
 72
     1
 10
21.00864420005974
 20
9.422093767501763
 11
21.01694207722651
 21
9.422093767501763
 72
     4
 94
        3
 73
     0
 74
     0
 95
        8
 96
        4
 40
3.0
 40
3.0
 40
3.0
 40
3.0
 40
3.85960910064043
 40
3.85960910064043
 40
3.85960910064043
 40
3.85960910064043
 10
21.01694207759766
 20
9.422093767652027
 10
21.01781012173743
 20
9.422404169920467
 10
21.01863612801679
 20
9.422821313486306
 10
21.01940593098939
 20
9.423332234953136
 97
        0
 72
     4
 94
        3
 73
     0
 74
     0
 95
        8
 96
        4
 40
2.0
 40
2.0
 40
2.0
 40
2.0
 40
3.0
 40
3.0
 40
3.0
 40
3.0
 10
21.01940593098939
 20
9.423332234953136
 10
21.02033389653533
 20
9.423948129584232
 10
21.02117118178381
 20
9.424686728120178
 10
21.02191273057335
 20
9.425517649974819
 97
        0
 97
        0
 92
       20
 93
       14
 72
     4
 94
        3
 73
     0
 74
     0
 95
        8
 96
        4
 40
0.0003959641302969
 40
0.0003959641302969
 40
0.0003959641302969
 40
0.0003959641302969
 40
1.0
 40
1.0
 40
1.0
 40
1.0
 10
21.00525680974036
 20
9.436625785966812
 10
21.00525696994467
 20
9.436626379179005
 10
21.00545932710318
 20
9.437375592788098
 10
21.00576588279162
 20
9.438085135178212
 97
        0
 72
     4
 94
        3
 73
     0
 74
     0
 95
        8
 96
        4
 40
1.0
 40
1.0
 40
1.0
 40
1.0
 40
2.0
 40
2.0
 40
2.0
 40
2.0
 10
21.00576588279162
 20
9.438085135178212
 10
21.00600541720163
 20
9.438639552610863
 10
21.00630406501438
 20
9.439167472868037
 10
21.00667604387127
 20
9.439643207534928
 97
        0
 72
     4
 94
        3
 73
     0
 74
     0
 95
        8
 96
        4
 40
2.0
 40
2.0
 40
2.0
 40
2.0
 40
3.0
 40
3.0
 40
3.0
 40
3.0
 10
21.00667604387127
 20
9.439643207534928
 10
21.00708564032763
 20
9.44016705245302
 10
21.00757338478863
 20
9.440623854355647
 10
21.00811070455677
 20
9.441016162384826
 97
        0
 72
     4
 94
        3
 73
     0
 74
     0
 95
        8
 96
        4
 40
3.0
 40
3.0
 40
3.0
 40
3.0
 40
4.0
 40
4.0
 40
4.0
 40
4.0
 10
21.00811070455677
 20
9.441016162384826
 10
21.00855150268293
 20
9.44133799801115
 10
21.00902573334793
 20
9.441609885878277
 10
21.00952993878232
 20
9.441818338252247
 97
        0
 72
     4
 94
        3
 73
     0
 74
     0
 95
        8
 96
        4
 40
4.0
 40
4.0
 40
4.0
 40
4.0
 40
5.0
 40
5.0
 40
5.0
 40
5.0
 10
21.00952993878232
 20
9.441818338252247
 10
21.0101315573481
 20
9.442067063889894
 10
21.01076659587147
 20
9.442226757655047
 10
21.01141196677739
 20
9.44231198494063
 97
        0
 72
     4
 94
        3
 73
     0
 74
     0
 95
        8
 96
        4
 40
5.0
 40
5.0
 40
5.0
 40
5.0
 40
6.0
 40
6.0
 40
6.0
 40
6.0
 10
21.01141196677739
 20
9.44231198494063
 10
21.01183627680672
 20
9.442368019062783
 10
21.01226430865381
 20
9.4423856900504
 10
21.012692362872
 20
9.442389117233917
 97
        0
 72
     4
 94
        3
 73
     0
 74
     0
 95
        8
 96
        4
 40
6.0
 40
6.0
 40
6.0
 40
6.0
 40
7.0
 40
7.0
 40
7.0
 40
7.0
 10
21.012692362872
 20
9.442389117233917
 10
21.01315665929644
 20
9.442392834587963
 10
21.01362195533795
 20
9.442382054335194
 10
21.01408074418344
 20
9.442311984939919
 97
        0
 72
     4
 94
        3
 73
     0
 74
     0
 95
        8
 96
        4
 40
7.0
 40
7.0
 40
7.0
 40
7.0
 40
8.0
 40
8.0
 40
8.0
 40
8.0
 10
21.01408074418344
 20
9.442311984939919
 10
21.01463739223922
 20
9.442226969811626
 10
21.01517735226975
 20
9.4420585368089
 10
21.01570052237474
 20
9.441849191165717
 97
        0
 72
     4
 94
        3
 73
     0
 74
     0
 95
        8
 96
        4
 40
8.0
 40
8.0
 40
8.0
 40
8.0
 40
9.0
 40
9.0
 40
9.0
 40
9.0
 10
21.01570052237474
 20
9.441849191165717
 10
21.01620448753883
 20
9.441647530347623
 10
21.01669377773635
 20
9.441408809281712
 10
21.01713518306343
 20
9.441093294664126
 97
        0
 72
     4
 94
        3
 73
     0
 74
     0
 95
        8
 96
        4
 40
9.0
 40
9.0
 40
9.0
 40
9.0
 40
10.0
 40
10.0
 40
10.0
 40
10.0
 10
21.01713518306343
 20
9.441093294664126
 10
21.01762861693345
 20
9.440740590268999
 10
21.0180524623554
 20
9.440302614752367
 10
21.01843100561163
 20
9.439828325022743
 97
        0
 72
     4
 94
        3
 73
     0
 74
     0
 95
        8
 96
        4
 40
10.0
 40
10.0
 40
10.0
 40
10.0
 40
11.0
 40
11.0
 40
11.0
 40
11.0
 10
21.01843100561163
 20
9.439828325022743
 10
21.01881148194065
 20
9.439351613280207
 10
21.01913513017894
 20
9.438833411920411
 10
21.01940287253399
 20
9.438285679201527
 97
        0
 72
     4
 94
        3
 73
     0
 74
     0
 95
        8
 96
        4
 40
11.0
 40
11.0
 40
11.0
 40
11.0
 40
12.0
 40
12.0
 40
12.0
 40
12.0
 10
21.01940287253399
 20
9.438285679201527
 10
21.01960693913515
 20
9.437868210869851
 10
21.0197727023789
 20
9.43743309392974
 10
21.01991194566239
 20
9.436989856577724
 97
        0
 72
     4
 94
        3
 73
     0
 74
     0
 95
        8
 96
        4
 40
12.0
 40
12.0
 40
12.0
 40
12.0
 40
12.99917607255645
 40
12.99917607255645
 40
12.99917607255645
 40
12.99917607255645
 10
21.01991194566239
 20
9.436989856577724
 10
21.0199688064155
 20
9.436808858191753
 10
21.02001984671368
 20
9.436626087012996
 10
21.02001993078363
 20
9.436625785955483
 97
        0
 72
     1
 10
21.02001993088041
 20
9.436625785614268
 11
21.0052568096413
 21
9.436625785614268
 97
        0
 92
        5
 93
        6
 72
     4
 94
        3
 73
     0
 74
     0
 95
        8
 96
        4
 40
4.0
 40
4.0
 40
4.0
 40
4.0
 40
5.0
 40
5.0
 40
5.0
 40
5.0
 10
21.01378170115262
 20
9.421457491675282
 10
21.01470802149939
 20
9.421515484827748
 10
21.01562730525973
 20
9.42167360229858
 10
21.01651346993086
 20
9.421950281336988
 97
        0
 72
     4
 94
        3
 73
     0
 74
     0
 95
        8
 96
        4
 40
3.85960910064043
 40
3.85960910064043
 40
3.85960910064043
 40
3.85960910064043
 40
4.0
 40
4.0
 40
4.0
 40
4.0
 10
21.01651346993086
 20
9.421950281336988
 10
21.01665741930049
 20
9.421995225323612
 10
21.01680030909222
 20
9.422043072919251
 10
21.01694207759766
 20
9.422093767652027
 97
        0
 72
     1
 10
21.01694207716363
 20
9.422093767501763
 11
21.0086442000615
 21
9.422093767501763
 72
     4
 94
        3
 73
     0
 74
     0
 95
        8
 96
        4
 40
7.0
 40
7.0
 40
7.0
 40
7.0
 40
7.716585890153695
 40
7.716585890153695
 40
7.716585890153695
 40
7.716585890153695
 10
21.00864420004845
 20
9.422093767505854
 10
21.00925996326555
 20
9.421882199797764
 10
21.00989243169903
 20
9.421721220326674
 10
21.01053571707877
 20
9.421618183951323
 97
        0
 72
     4
 94
        3
 73
     0
 74
     0
 95
        8
 96
        4
 40
6.0
 40
6.0
 40
6.0
 40
6.0
 40
7.0
 40
7.0
 40
7.0
 40
7.0
 10
21.01053571707877
 20
9.421618183951323
 10
21.01118745725577
 20
9.421513793353256
 10
21.01184693335273
 20
9.421466559992495
 10
21.0125068757236
 20
9.421446778854972
 97
        0
 72
     4
 94
        3
 73
     0
 74
     0
 95
        8
 96
        4
 40
5.0
 40
5.0
 40
5.0
 40
5.0
 40
6.0
 40
6.0
 40
6.0
 40
6.0
 10
21.0125068757236
 20
9.421446778854972
 10
21.01293191774875
 20
9.421434038629199
 10
21.01335729992076
 20
9.421430921638815
 10
21.01378170115262
 20
9.421457491675282
 97
        0
 97
        0
 75
     1
 76
     1
 47
0.0000065807483249
 98
        3
 10
21.01946011169102
 20
9.426308475530175
 10
21.01946011169102
 20
9.426308475530175
 10
21.01293827643448
 20
9.421636224458024
450
        0
451
        0
460
0.0
461
0.0
452
        0
462
1.0
453
        2
463
0.0
 63
     5
421
      255
463
1.0
 63
     2
421
 16776960
470
LINEAR
1001
GradientColor1ACI
1070
     5
1001
GradientColor2ACI
1070
     2
1001
ACAD
1010
0.0
1020
0.0
1030
0.0
  0
LINE
  5
4D8
330
1F
100
AcDbEntity
  8
Visibile (ISO)_Num_Penna__1
  6
Continuous
100
AcDbLine
 10
20.74454230577118
 20
9.030093767501767
 30
0.0
 11
20.74454230577118
 21
9.470093767501822
 31
0.0
  0
LINE
  5
4D9
330
1F
100
AcDbEntity
  8
Visibile (ISO)_Num_Penna__1
  6
Continuous
100
AcDbLine
 10
20.74454230577118
 20
9.030092625215415
 30
0.0
 11
20.74454230577118
 21
9.017593767504678
 31
0.0
  0
LINE
  5
4DA
330
1F
100
AcDbEntity
  8
Visibile (ISO)_Num_Penna__1
  6
Continuous
100
AcDbLine
 10
20.74454230577118
 20
9.017593767504678
 30
0.0
 11
20.74454230577118
 21
8.817593767501788
 31
0.0
  0
LINE
  5
4DB
330
1F
100
AcDbEntity
  8
Visibile (ISO)_Num_Penna__1
  6
Continuous
100
AcDbLine
 10
20.74454230577118
 20
8.807593767501911
 30
0.0
 11
20.74454230577118
 21
8.817593767501788
 31
0.0
  0
LINE
  5
4DC
330
1F
100
AcDbEntity
  8
Visibile (ISO)_Num_Penna__1
  6
Continuous
100
AcDbLine
 10
20.74454230577118
 20
9.682855536984931
 30
0.0
 11
20.74454230577118
 21
9.692593767501788
 31
0.0
  0
LINE
  5
4DD
330
1F
100
AcDbEntity
  8
Visibile (ISO)_Num_Penna__1
  6
Continuous
100
AcDbLine
 10
20.74454230577118
 20
9.682855536984931
 30
0.0
 11
20.74454230577118
 21
9.592266555647851
 31
0.0
  0
LINE
  5
4DE
330
1F
100
AcDbEntity
  8
Visibile (ISO)_Num_Penna__1
  6
Continuous
100
AcDbLine
 10
20.74454230577118
 20
9.592266555647851
 30
0.0
 11
20.74454230577118
 21
9.580093767501736
 31
0.0
  0
LINE
  5
4DF
330
1F
100
AcDbEntity
  8
Visibile (ISO)_Num_Penna__1
  6
Continuous
100
AcDbLine
 10
20.74454230577118
 20
9.570355536984976
 30
0.0
 11
20.74454230577118
 21
9.580093767501736
 31
0.0
  0
LINE
  5
4E0
330
1F
100
AcDbEntity
  8
Visibile (ISO)_Num_Penna__1
  6
Continuous
100
AcDbLine
 10
20.74454230577118
 20
9.570355536984976
 30
0.0
 11
20.74454230577118
 21
9.482266555647854
 31
0.0
  0
LINE
  5
4E1
330
1F
100
AcDbEntity
  8
Visibile (ISO)_Num_Penna__1
  6
Continuous
100
AcDbLine
 10
20.74454230577118
 20
9.482266555647854
 30
0.0
 11
20.74454230577118
 21
9.470094909787944
 31
0.0
  0
LINE
  5
4E2
330
1F
100
AcDbEntity
  8
Visibile (ISO)_Num_Penna__1
  6
Continuous
100
AcDbLine
 10
20.74454230577118
 20
9.030092625215415
 30
0.0
 11
20.74454230577118
 21
9.470094909787944
 31
0.0
  0
LINE
  5
4E3
330
1F
100
AcDbEntity
  8
Visibile (ISO)_Num_Penna__1
  6
Continuous
100
AcDbLine
 10
21.10454230577099
 20
9.695093767500592
 30
0.0
 11
21.10454230577099
 21
8.805093767502667
 31
0.0
  0
LINE
  5
4E4
330
1F
100
AcDbEntity
  8
Visibile (ISO)_Num_Penna__1
  6
Continuous
100
AcDbLine
 10
21.10454230577099
 20
9.695093767500592
 30
0.0
 11
21.10454230577099
 21
9.590093767501032
 31
0.0
  0
LINE
  5
4E5
330
1F
100
AcDbEntity
  8
Visibile (ISO)_Num_Penna__1
  6
Continuous
100
AcDbLine
 10
20.74454230577121
 20
9.480093767501543
 30
0.0
 11
20.74454230577121
 21
9.695093767501447
 31
0.0
  0
LINE
  5
4E6
330
1F
100
AcDbEntity
  8
Visibile (ISO)_Num_Penna__1
  6
Continuous
100
AcDbLine
 10
20.74454230577121
 20
8.80509376750146
 30
0.0
 11
20.74454230577121
 21
9.692593767501788
 31
0.0
  0
LINE
  5
4E7
330
1F
100
AcDbEntity
  8
Visibile (ISO)_Num_Penna__1
  6
Continuous
100
AcDbLine
 10
21.099542305771
 20
8.800093767501806
 30
0.0
 11
20.7495423057712
 21
8.800093767501806
 31
0.0
  0
LINE
  5
4E8
330
1F
100
AcDbEntity
  8
Visibile (ISO)_Num_Penna__1
  6
Continuous
100
AcDbLine
 10
21.10454230577099
 20
9.695093767500592
 30
0.0
 11
21.10454230577099
 21
8.80509376750146
 31
0.0
  0
LINE
  5
4E9
330
1F
100
AcDbEntity
  8
Visibile (ISO)_Num_Penna__1
  6
Continuous
100
AcDbLine
 10
21.099542305771
 20
9.700093767501456
 30
0.0
 11
20.7495423057712
 21
9.700093767501456
 31
0.0
  0
LINE
  5
4EA
330
1F
100
AcDbEntity
  8
Visibile (ISO)_Num_Penna__1
  6
Continuous
100
AcDbLine
 10
21.10454230577099
 20
9.695093767501447
 30
0.0
 11
21.10454230577099
 21
9.480093767500974
 31
0.0
  0
LINE
  5
4EB
330
1F
100
AcDbEntity
  8
Visibile (ISO)_Num_Penna__1
  6
Continuous
100
AcDbLine
 10
20.75554230577106
 20
8.800093767501806
 30
0.0
 11
20.7495423057712
 21
8.800093767501806
 31
0.0
  0
ARC
  5
4EC
330
1F
100
AcDbEntity
  8
Visibile (ISO)_Num_Penna__1
  6
Continuous
100
AcDbCircle
 10
21.099542305771
 20
8.80509376750146
 30
0.0
 40
0.0049999999999955
100
AcDbArc
 50
270.0
 51
0.0
  0
ARC
  5
4ED
330
1F
100
AcDbEntity
  8
Visibile (ISO)_Num_Penna__1
  6
Continuous
100
AcDbCircle
 10
20.7495423057712
 20
9.695093767501447
 30
0.0
 40
0.0049999999999955
100
AcDbArc
 50
90.0
 51
180.0
  0
ARC
  5
4EE
330
1F
100
AcDbEntity
  8
Visibile (ISO)_Num_Penna__1
  6
Continuous
100
AcDbCircle
 10
21.099542305771
 20
9.695093767501447
 30
0.0
 40
0.0049999999999955
100
AcDbArc
 50
0.0
 51
90.0
  0
ARC
  5
4EF
330
1F
100
AcDbEntity
  8
Visibile (ISO)_Num_Penna__1
  6
Continuous
100
AcDbCircle
 10
20.7495423057712
 20
8.80509376750146
 30
0.0
 40
0.0049999999999955
100
AcDbArc
 50
180.0
 51
270.0
  0
LINE
  5
4F0
330
1F
100
AcDbEntity
  8
Visibile (ISO)_Num_Penna__1
  6
Continuous
100
AcDbLine
 10
20.74454230577121
 20
8.807593767501911
 30
0.0
 11
20.74454230577121
 21
8.817593767501788
 31
0.0
  0
LINE
  5
4F1
330
1F
100
AcDbEntity
  8
Visibile (ISO)_Num_Penna__1
  6
Continuous
100
AcDbLine
 10
20.74454230577121
 20
9.682855536984931
 30
0.0
 11
20.74454230577121
 21
9.692593767501788
 31
0.0
  0
LINE
  5
4F2
330
1F
100
AcDbEntity
  8
Visibile (ISO)_Num_Penna__1
  6
Continuous
100
AcDbLine
 10
20.74454230577121
 20
9.682855536984931
 30
0.0
 11
20.74454230577121
 21
9.592266555647851
 31
0.0
  0
ENDSEC
  0
SECTION
  2
OBJECTS
  0
DICTIONARY
  5
C
330
0
100
AcDbDictionary
281
     1
  3
ACAD_CIP_PREVIOUS_PRODUCT_INFO
350
1A5
  3
ACAD_COLOR
350
73
  3
ACAD_DETAILVIEWSTYLE
350
1AB
  3
ACAD_GROUP
350
D
  3
ACAD_LAYOUT
350
1A
  3
ACAD_MATERIAL
350
72
  3
ACAD_MLEADERSTYLE
350
D7
  3
ACAD_MLINESTYLE
350
17
  3
ACAD_PLOTSETTINGS
350
19
  3
ACAD_PLOTSTYLENAME
350
E
  3
ACAD_SCALELIST
350
B6
  3
ACAD_SECTIONVIEWSTYLE
350
1A8
  3
ACAD_TABLESTYLE
350
86
  3
ACAD_VISUALSTYLE
350
99
  3
ACDB_RECOMPOSE_DATA
350
504
  3
AcDbVariableDictionary
350
66
  0
DICTIONARY
  5
18E
330
2
100
AcDbDictionary
280
     1
281
     1
  3
ACAD_LAYERSTATES
360
18F
  0
DICTIONARY
  5
E6
330
10
100
AcDbDictionary
280
     1
281
     1
  0
DICTIONARY
  5
1C0
330
1BF
100
AcDbDictionary
280
     1
281
     1
  0
DICTIONARY
  5
1C2
330
1C1
100
AcDbDictionary
280
     1
281
     1
  0
DICTIONARY
  5
1C4
330
1C3
100
AcDbDictionary
280
     1
281
     1
  0
DICTIONARY
  5
1C6
330
1C5
100
AcDbDictionary
280
     1
281
     1
  0
DICTIONARY
  5
1C8
330
1C7
100
AcDbDictionary
280
     1
281
     1
  0
DICTIONARY
  5
1CA
330
1C9
100
AcDbDictionary
280
     1
281
     1
  0
DICTIONARY
  5
1CC
330
1CB
100
AcDbDictionary
280
     1
281
     1
  0
DICTIONARY
  5
1CE
330
1CD
100
AcDbDictionary
280
     1
281
     1
  0
DICTIONARY
  5
1D0
330
1CF
100
AcDbDictionary
280
     1
281
     1
  0
DICTIONARY
  5
1D2
330
1D1
100
AcDbDictionary
280
     1
281
     1
  0
DICTIONARY
  5
1D4
330
1D3
100
AcDbDictionary
280
     1
281
     1
  0
DICTIONARY
  5
15D
330
1F
100
AcDbDictionary
280
     1
281
     1
  0
XRECORD
  5
1A5
102
{ACAD_REACTORS
330
C
102
}
330
C
100
AcDbXrecord
280
     1
300
ACD
300
2013
300
ACD_F_S
  0
DICTIONARY
  5
73
102
{ACAD_REACTORS
330
C
102
}
330
C
100
AcDbDictionary
281
     1
  0
DICTIONARY
  5
1AB
102
{ACAD_REACTORS
330
C
102
}
330
C
100
AcDbDictionary
281
     1
  3
Imperial24
350
1AC
  0
DICTIONARY
  5
D
102
{ACAD_REACTORS
330
C
102
}
330
C
100
AcDbDictionary
281
     1
  0
DICTIONARY
  5
1A
102
{ACAD_REACTORS
330
C
102
}
330
C
100
AcDbDictionary
281
     1
  3
Layout1
350
59
  3
Layout2
350
5E
  3
Model
350
22
  0
DICTIONARY
  5
72
102
{ACAD_REACTORS
330
C
102
}
330
C
100
AcDbDictionary
281
     1
  3
ByBlock
350
97
  3
ByLayer
350
96
  3
Global
350
98
  0
DICTIONARY
  5
D7
102
{ACAD_REACTORS
330
C
102
}
330
C
100
AcDbDictionary
281
     1
  3
Annotativa
350
E5
  3
Standard
350
D8
  0
DICTIONARY
  5
17
102
{ACAD_REACTORS
330
C
102
}
330
C
100
AcDbDictionary
281
     1
  3
Standard
350
18
  0
DICTIONARY
  5
19
102
{ACAD_REACTORS
330
C
102
}
330
C
100
AcDbDictionary
281
     1
  0
ACDBDICTIONARYWDFLT
  5
E
102
{ACAD_REACTORS
330
C
102
}
330
C
100
AcDbDictionary
281
     1
  3
Normal
350
F
100
AcDbDictionaryWithDefault
340
F
  0
DICTIONARY
  5
B6
102
{ACAD_REACTORS
330
C
102
}
330
C
100
AcDbDictionary
281
     1
  3
A0
350
B7
  3
A1
350
124
  3
A2
350
125
  3
A3
350
126
  3
A4
350
127
  3
A5
350
128
  3
A6
350
129
  3
A7
350
12A
  3
A8
350
12B
  3
A9
350
12C
  3
B0
350
12D
  3
B1
350
12E
  3
B2
350
12F
  3
B3
350
130
  3
B4
350
131
  3
B5
350
132
  3
B6
350
133
  3
B7
350
134
  3
B8
350
135
  3
B9
350
136
  3
C0
350
137
  3
C1
350
138
  3
C2
350
139
  3
C3
350
13A
  3
C4
350
13B
  3
C5
350
13C
  3
C6
350
13D
  3
C7
350
13E
  3
C8
350
13F
  3
C9
350
140
  3
D0
350
141
  3
D1
350
142
  3
D2
350
143
  0
DICTIONARY
  5
1A8
102
{ACAD_REACTORS
330
C
102
}
330
C
100
AcDbDictionary
281
     1
  3
Imperial24
350
1AA
  0
DICTIONARY
  5
86
102
{ACAD_REACTORS
330
C
102
}
330
C
100
AcDbDictionary
281
     1
  3
Standard
350
87
  0
DICTIONARY
  5
99
102
{ACAD_REACTORS
330
C
102
}
330
C
100
AcDbDictionary
281
     1
  3
2dWireframe
350
9F
  3
Basic
350
9E
  3
Brighten
350
A5
  3
ColorChange
350
A9
  3
Conceptual
350
A2
  3
Dim
350
A4
  3
EdgeColorOff
350
175
  3
Facepattern
350
A8
  3
Flat
350
9A
  3
FlatWithEdges
350
9B
  3
Gouraud
350
9C
  3
GouraudWithEdges
350
9D
  3
Hidden
350
A1
  3
JitterOff
350
173
  3
Linepattern
350
A7
  3
OverhangOff
350
174
  3
Realistic
350
A3
  3
Shaded
350
182
  3
Shaded with edges
350
181
  3
Shades of Gray
350
17E
  3
Sketchy
350
17F
  3
Thicken
350
A6
  3
Wireframe
350
A0
  3
X-Ray
350
180
  0
XRECORD
  5
504
102
{ACAD_REACTORS
330
C
102
}
330
C
100
AcDbXrecord
280
     1
 90
        1
330
87
  0
DICTIONARY
  5
66
102
{ACAD_REACTORS
330
C
102
}
330
C
100
AcDbDictionary
281
     1
  3
CANNOSCALE
350
F0
  3
CMLEADERSTYLE
350
EF
  3
CTABLESTYLE
350
89
  3
CVIEWDETAILSTYLE
350
1B7
  3
CVIEWSECTIONSTYLE
350
1B8
  3
DIMASSOC
350
67
  3
HIDETEXT
350
6B
  3
LAYEREVAL
350
14D
  3
LAYERNOTIFY
350
14E
  0
DICTIONARY
  5
18F
102
{ACAD_REACTORS
330
18E
102
}
330
18E
100
AcDbDictionary
281
     1
  0
ACDBDETAILVIEWSTYLE
  5
1AC
102
{ACAD_REACTORS
330
1AB
102
}
330
1AB
100
AcDbModelDocViewStyle
 70
     0
  3
Imperial24
290
     0
100
AcDbDetailViewStyle
 70
     0
 71
     0
 90
        3
 71
     1
340
11
 62
   256
 40
0.24
340
0
 62
   256
 40
0.24
300

 40
0.36
280
     3
 71
     2
340
16
 90
       25
 62
   256
 71
     3
340
11
 62
   256
 40
0.24
 90
        1
 40
0.75
 90
        1
300
%<\AcVar ViewType \f "%tc1">% %<\AcVar ViewDetailId>%\PSCALE %<\AcVar ViewScale \f "%sn">%
 71
     4
340
16
 90
       25
 62
   256
340
16
 90
       25
 62
   256
280
     0
  0
LAYOUT
  5
59
102
{ACAD_REACTORS
330
1A
102
}
330
1A
100
AcDbPlotSettings
  1

  2
None
  4

  6

 40
0.0
 41
0.0
 42
0.0
 43
0.0
 44
0.0
 45
0.0
 46
0.0
 47
0.0
 48
0.0
 49
0.0
140
0.0
141
0.0
142
1.0
143
1.0
 70
   688
 72
     0
 73
     0
 74
     5
  7

 75
    16
147
1.0
 76
     0
 77
     2
 78
   300
148
0.0
149
0.0
100
AcDbLayout
  1
Layout1
 70
     1
 71
     1
 10
0.0
 20
0.0
 11
12.0
 21
9.0
 12
0.0
 22
0.0
 32
0.0
 14
0.0
 24
0.0
 34
0.0
 15
0.0
 25
0.0
 35
0.0
146
0.0
 13
0.0
 23
0.0
 33
0.0
 16
1.0
 26
0.0
 36
0.0
 17
0.0
 27
1.0
 37
0.0
 76
     0
330
58
  0
LAYOUT
  5
5E
102
{ACAD_REACTORS
330
1A
102
}
330
1A
100
AcDbPlotSettings
  1

  2
None
  4

  6

 40
0.0
 41
0.0
 42
0.0
 43
0.0
 44
0.0
 45
0.0
 46
0.0
 47
0.0
 48
0.0
 49
0.0
140
0.0
141
0.0
142
1.0
143
1.0
 70
   688
 72
     0
 73
     0
 74
     5
  7

 75
    16
147
1.0
 76
     0
 77
     2
 78
   300
148
0.0
149
0.0
100
AcDbLayout
  1
Layout2
 70
     1
 71
     2
 10
0.0
 20
0.0
 11
12.0
 21
9.0
 12
0.0
 22
0.0
 32
0.0
 14
0.0
 24
0.0
 34
0.0
 15
0.0
 25
0.0
 35
0.0
146
0.0
 13
0.0
 23
0.0
 33
0.0
 16
1.0
 26
0.0
 36
0.0
 17
0.0
 27
1.0
 37
0.0
 76
     0
330
5D
  0
LAYOUT
  5
22
102
{ACAD_XDICTIONARY
360
194
102
}
102
{ACAD_REACTORS
330
1A
102
}
330
1A
100
AcDbPlotSettings
  1

  2
none_device
  4
ANSI_A_(8.50_x_11.00_Inches)
  6

 40
6.349999904632567
 41
19.04999923706055
 42
6.350006103515625
 43
19.04998779296875
 44
215.8999938964844
 45
279.3999938964844
 46
0.0
 47
0.0
 48
0.0
 49
0.0
140
0.0
141
0.0
142
1.0
143
2.584895464708373
 70
 11952
 72
     0
 73
     1
 74
     0
  7

 75
     0
147
0.3868628397755418
 76
     0
 77
     2
 78
   300
148
0.0
149
0.0
100
AcDbLayout
  1
Model
 70
     1
 71
     0
 10
0.0
 20
0.0
 11
12.0
 21
9.0
 12
0.0
 22
0.0
 32
0.0
 14
0.0
 24
0.0
 34
0.0
 15
0.0
 25
0.0
 35
0.0
146
0.0
 13
0.0
 23
0.0
 33
0.0
 16
1.0
 26
0.0
 36
0.0
 17
0.0
 27
1.0
 37
0.0
 76
     0
330
1F
331
94
  0
MATERIAL
  5
97
102
{ACAD_XDICTIONARY
360
188
102
}
102
{ACAD_REACTORS
330
72
102
}
330
72
100
AcDbMaterial
  1
ByBlock
 94
       63
  0
MATERIAL
  5
96
102
{ACAD_XDICTIONARY
360
186
102
}
102
{ACAD_REACTORS
330
72
102
}
330
72
100
AcDbMaterial
  1
ByLayer
 94
       63
  0
MATERIAL
  5
98
102
{ACAD_XDICTIONARY
360
110
102
}
102
{ACAD_REACTORS
330
72
102
}
330
72
100
AcDbMaterial
  1
Global
 43
0.0208000000566244
 43
0.0
 43
0.0
 43
0.0
 43
0.0
 43
0.0208000000566244
 43
0.0
 43
0.0
 43
0.0
 43
0.0
 43
1.0
 43
0.0
 43
0.0
 43
0.0
 43
0.0
 43
1.0
 49
0.0208000000566244
 49
0.0
 49
0.0
 49
0.0
 49
0.0
 49
0.0208000000566244
 49
0.0
 49
0.0
 49
0.0
 49
0.0
 49
1.0
 49
0.0
 49
0.0
 49
0.0
 49
0.0
 49
1.0
142
0.0208000000566244
142
0.0
142
0.0
142
0.0
142
0.0
142
0.0208000000566244
142
0.0
142
0.0
142
0.0
142
0.0
142
1.0
142
0.0
142
0.0
142
0.0
142
0.0
142
1.0
144
0.0208000000566244
144
0.0
144
0.0
144
0.0
144
0.0
144
0.0208000000566244
144
0.0
144
0.0
144
0.0
144
0.0
144
1.0
144
0.0
144
0.0
144
0.0
144
0.0
144
1.0
 94
       63
1001
ACAD
1070
    -1
1070
     3
1070
     0
1000

1071
        0
1070
     0
  0
MLEADERSTYLE
  5
E5
102
{ACAD_REACTORS
330
D7
102
}
330
D7
100
AcDbMLeaderStyle
179
     2
170
     2
171
     1
172
     0
 90
        2
 40
0.0
 41
0.0
173
     1
 91
-1056964608
340
14
 92
       -2
290
     1
 42
0.09
291
     1
 43
0.36
  3
Standard
 44
0.18
300

342
11
174
     1
178
     1
175
     1
176
     0
 93
-1056964608
 45
0.18
292
     0
297
     0
 46
0.18
 94
-1056964608
 47
1.0
 49
1.0
140
1.0
293
     1
141
0.0
294
     1
177
     0
142
1.0
295
     0
296
     1
143
0.125
271
     0
272
     9
273
     9
298
     0
  0
MLEADERSTYLE
  5
D8
102
{ACAD_REACTORS
330
D7
102
}
330
D7
100
AcDbMLeaderStyle
179
     2
170
     2
171
     1
172
     0
 90
        2
 40
0.0
 41
0.0
173
     1
 91
-1056964608
340
14
 92
       -2
290
     1
 42
0.09
291
     1
 43
0.36
  3
Standard
 44
0.18
300

342
11
174
     1
178
     1
175
     1
176
     0
 93
-1056964608
 45
0.18
292
     0
297
     0
 46
0.18
 94
-1056964608
 47
1.0
 49
1.0
140
1.0
293
     1
141
0.0
294
     1
177
     0
142
1.0
295
     0
296
     0
143
0.125
271
     0
272
     9
273
     9
298
     0
  0
MLINESTYLE
  5
18
102
{ACAD_REACTORS
330
17
102
}
330
17
100
AcDbMlineStyle
  2
STANDARD
 70
     0
  3

 62
   256
 51
90.0
 52
90.0
 71
     2
 49
0.5
 62
   256
  6
BYLAYER
 49
-0.5
 62
   256
  6
BYLAYER
  0
ACDBPLACEHOLDER
  5
F
102
{ACAD_REACTORS
330
E
102
}
330
E
  0
SCALE
  5
B7
102
{ACAD_REACTORS
330
B6
102
}
330
B6
100
AcDbScale
 70
     0
300
1:1
140
1.0
141
1.0
290
     1
  0
SCALE
  5
124
102
{ACAD_REACTORS
330
B6
102
}
330
B6
100
AcDbScale
 70
     0
300
1:2
140
1.0
141
2.0
290
     0
  0
SCALE
  5
125
102
{ACAD_REACTORS
330
B6
102
}
330
B6
100
AcDbScale
 70
     0
300
1:4
140
1.0
141
4.0
290
     0
  0
SCALE
  5
126
102
{ACAD_REACTORS
330
B6
102
}
330
B6
100
AcDbScale
 70
     0
300
1:5
140
1.0
141
5.0
290
     0
  0
SCALE
  5
127
102
{ACAD_REACTORS
330
B6
102
}
330
B6
100
AcDbScale
 70
     0
300
1:8
140
1.0
141
8.0
290
     0
  0
SCALE
  5
128
102
{ACAD_REACTORS
330
B6
102
}
330
B6
100
AcDbScale
 70
     0
300
1:10
140
1.0
141
10.0
290
     0
  0
SCALE
  5
129
102
{ACAD_REACTORS
330
B6
102
}
330
B6
100
AcDbScale
 70
     0
300
1:16
140
1.0
141
16.0
290
     0
  0
SCALE
  5
12A
102
{ACAD_REACTORS
330
B6
102
}
330
B6
100
AcDbScale
 70
     0
300
1:20
140
1.0
141
20.0
290
     0
  0
SCALE
  5
12B
102
{ACAD_REACTORS
330
B6
102
}
330
B6
100
AcDbScale
 70
     0
300
1:30
140
1.0
141
30.0
290
     0
  0
SCALE
  5
12C
102
{ACAD_REACTORS
330
B6
102
}
330
B6
100
AcDbScale
 70
     0
300
1:40
140
1.0
141
40.0
290
     0
  0
SCALE
  5
12D
102
{ACAD_REACTORS
330
B6
102
}
330
B6
100
AcDbScale
 70
     0
300
1:50
140
1.0
141
50.0
290
     0
  0
SCALE
  5
12E
102
{ACAD_REACTORS
330
B6
102
}
330
B6
100
AcDbScale
 70
     0
300
1:100
140
1.0
141
100.0
290
     0
  0
SCALE
  5
12F
102
{ACAD_REACTORS
330
B6
102
}
330
B6
100
AcDbScale
 70
     0
300
2:1
140
2.0
141
1.0
290
     0
  0
SCALE
  5
130
102
{ACAD_REACTORS
330
B6
102
}
330
B6
100
AcDbScale
 70
     0
300
4:1
140
4.0
141
1.0
290
     0
  0
SCALE
  5
131
102
{ACAD_REACTORS
330
B6
102
}
330
B6
100
AcDbScale
 70
     0
300
8:1
140
8.0
141
1.0
290
     0
  0
SCALE
  5
132
102
{ACAD_REACTORS
330
B6
102
}
330
B6
100
AcDbScale
 70
     0
300
10:1
140
10.0
141
1.0
290
     0
  0
SCALE
  5
133
102
{ACAD_REACTORS
330
B6
102
}
330
B6
100
AcDbScale
 70
     0
300
100:1
140
100.0
141
1.0
290
     0
  0
SCALE
  5
134
102
{ACAD_REACTORS
330
B6
102
}
330
B6
100
AcDbScale
 70
     0
300
1/128" = 1'-0"
140
0.0078125
141
12.0
290
     0
  0
SCALE
  5
135
102
{ACAD_REACTORS
330
B6
102
}
330
B6
100
AcDbScale
 70
     0
300
1/64" = 1'-0"
140
0.015625
141
12.0
290
     0
  0
SCALE
  5
136
102
{ACAD_REACTORS
330
B6
102
}
330
B6
100
AcDbScale
 70
     0
300
1/32" = 1'-0"
140
0.03125
141
12.0
290
     0
  0
SCALE
  5
137
102
{ACAD_REACTORS
330
B6
102
}
330
B6
100
AcDbScale
 70
     0
300
1/16" = 1'-0"
140
0.0625
141
12.0
290
     0
  0
SCALE
  5
138
102
{ACAD_REACTORS
330
B6
102
}
330
B6
100
AcDbScale
 70
     0
300
3/32" = 1'-0"
140
0.09375
141
12.0
290
     0
  0
SCALE
  5
139
102
{ACAD_REACTORS
330
B6
102
}
330
B6
100
AcDbScale
 70
     0
300
1/8" = 1'-0"
140
0.125
141
12.0
290
     0
  0
SCALE
  5
13A
102
{ACAD_REACTORS
330
B6
102
}
330
B6
100
AcDbScale
 70
     0
300
3/16" = 1'-0"
140
0.1875
141
12.0
290
     0
  0
SCALE
  5
13B
102
{ACAD_REACTORS
330
B6
102
}
330
B6
100
AcDbScale
 70
     0
300
1/4" = 1'-0"
140
0.25
141
12.0
290
     0
  0
SCALE
  5
13C
102
{ACAD_REACTORS
330
B6
102
}
330
B6
100
AcDbScale
 70
     0
300
3/8" = 1'-0"
140
0.375
141
12.0
290
     0
  0
SCALE
  5
13D
102
{ACAD_REACTORS
330
B6
102
}
330
B6
100
AcDbScale
 70
     0
300
1/2" = 1'-0"
140
0.5
141
12.0
290
     0
  0
SCALE
  5
13E
102
{ACAD_REACTORS
330
B6
102
}
330
B6
100
AcDbScale
 70
     0
300
3/4" = 1'-0"
140
0.75
141
12.0
290
     0
  0
SCALE
  5
13F
102
{ACAD_REACTORS
330
B6
102
}
330
B6
100
AcDbScale
 70
     0
300
1" = 1'-0"
140
1.0
141
12.0
290
     0
  0
SCALE
  5
140
102
{ACAD_REACTORS
330
B6
102
}
330
B6
100
AcDbScale
 70
     0
300
1-1/2" = 1'-0"
140
1.5
141
12.0
290
     0
  0
SCALE
  5
141
102
{ACAD_REACTORS
330
B6
102
}
330
B6
100
AcDbScale
 70
     0
300
3" = 1'-0"
140
3.0
141
12.0
290
     0
  0
SCALE
  5
142
102
{ACAD_REACTORS
330
B6
102
}
330
B6
100
AcDbScale
 70
     0
300
6" = 1'-0"
140
6.0
141
12.0
290
     0
  0
SCALE
  5
143
102
{ACAD_REACTORS
330
B6
102
}
330
B6
100
AcDbScale
 70
     0
300
1'-0" = 1'-0"
140
12.0
141
12.0
290
     0
  0
ACDBSECTIONVIEWSTYLE
  5
1AA
102
{ACAD_REACTORS
330
1A8
102
}
330
1A8
100
AcDbModelDocViewStyle
 70
     0
  3
Imperial24
290
     0
100
AcDbSectionViewStyle
 70
     0
 71
     0
 90
       78
 71
     1
340
11
 62
   256
 40
0.24
340
0
340
0
 62
   256
 40
0.24
300
I, O, Q, S, X, Z
 40
0.48
 90
        3
 40
0.18
 90
        1
 71
     2
340
1A9
 90
       25
 62
   256
340
16
 90
       50
 62
   256
 40
0.24
 40
0.0
 40
0.24
 71
     3
340
11
 62
   256
 40
0.24
 90
        1
 40
0.75
 90
        1
300
%<\AcVar ViewType \f "%tc1">% %<\AcVar ViewSectionStartId>%-%<\AcVar ViewSectionEndId>%\PSCALE %<\AcVar ViewScale \f "%sn">%
 71
     4
 62
   256
 62
   257
300
ANSI31
 40
1.0
 90
        0
290
     0
290
     0
 90
        6
 40
0.0
 40
1.570796326794896
 40
0.2617993877991494
 40
1.308996938995747
 40
-0.2617993877991494
 40
1.832595714594045
  0
TABLESTYLE
  5
87
102
{ACAD_XDICTIONARY
360
104
102
}
102
{ACAD_REACTORS
330
86
102
}
330
86
100
AcDbTableStyle
280
     0
  3
Standard
 70
     0
 71
     0
 40
0.06
 41
0.06
280
     0
281
     0
  7
Standard
140
0.18
170
     2
 62
     0
 63
     7
283
     0
 90
      512
 91
        0
  1

274
    -2
284
     1
 64
     0
275
    -2
285
     1
 65
     0
276
    -2
286
     1
 66
     0
277
    -2
287
     1
 67
     0
278
    -2
288
     1
 68
     0
279
    -2
289
     1
 69
     0
  7
Standard
140
0.25
170
     5
 62
     0
 63
     7
283
     0
 90
      512
 91
        0
  1

274
    -2
284
     1
 64
     0
275
    -2
285
     1
 65
     0
276
    -2
286
     1
 66
     0
277
    -2
287
     1
 67
     0
278
    -2
288
     1
 68
     0
279
    -2
289
     1
 69
     0
  7
Standard
140
0.18
170
     5
 62
     0
 63
     7
283
     0
 90
      512
 91
        0
  1

274
    -2
284
     1
 64
     0
275
    -2
285
     1
 65
     0
276
    -2
286
     1
 66
     0
277
    -2
287
     1
 67
     0
278
    -2
288
     1
 68
     0
279
    -2
289
     1
 69
     0
  0
VISUALSTYLE
  5
9F
102
{ACAD_REACTORS
330
99
102
}
330
99
100
AcDbVisualStyle
  2
2dWireframe
 70
     4
177
     3
291
     0
 70
    58
 90
        0
176
     1
 90
        2
176
     1
 90
        1
176
     1
 90
        0
176
     1
 40
0.6
176
     1
 40
30.0
176
     1
 62
     7
420
 16777215
176
     1
 90
        1
176
     1
 90
        4
176
     1
 62
     7
176
     1
 62
   257
176
     1
 90
        1
176
     1
 90
        1
176
     1
 40
1.0
176
     1
 90
        0
176
     1
 62
   257
176
     1
 40
1.0
176
     1
 90
        1
176
     1
 90
        6
176
     1
 90
        2
176
     1
 62
     7
176
     1
 90
        5
176
     1
 90
        0
176
     1
 90
        0
176
     1
290
     0
176
     1
 90
        1
176
     1
 40
0.0
176
     1
 90
        0
176
     1
290
     1
176
     1
290
     1
176
     1
290
     0
176
     1
290
     0
176
     1
290
     0
176
     1
290
     0
176
     1
290
     0
176
     1
290
     0
176
     1
290
     0
176
     1
 90
       50
176
     1
 40
0.0
176
     1
 40
1.0
176
     1
 90
        0
176
     1
 62
    18
176
     1
 90
       50
176
     1
 90
        3
176
     1
 62
     5
420
      255
176
     1
290
     0
176
     1
 90
       50
176
     1
 90
       50
176
     1
 90
       50
176
     1
290
     0
176
     1
 90
       50
176
     1
 62
   256
176
     0
 40
1.0
176
     0
 90
        2
176
     1
  1
strokes_ogs.tif
176
     1
290
     0
176
     1
 40
1.0
176
     1
 40
1.0
176
     1
  0
VISUALSTYLE
  5
9E
102
{ACAD_REACTORS
330
99
102
}
330
99
100
AcDbVisualStyle
  2
Basic
 70
     7
177
     3
291
     1
 70
    58
 90
        1
176
     1
 90
        0
176
     1
 90
        1
176
     1
 90
        0
176
     1
 40
0.6
176
     1
 40
30.0
176
     1
 62
     7
420
 16777215
176
     1
 90
        0
176
     1
 90
        4
176
     1
 62
     7
176
     1
 62
   257
176
     1
 90
        1
176
     1
 90
        1
176
     1
 40
1.0
176
     1
 90
        8
176
     1
 62
     7
176
     1
 40
1.0
176
     1
 90
        1
176
     1
 90
        6
176
     1
 90
        2
176
     1
 62
     7
176
     1
 90
        5
176
     1
 90
        0
176
     1
 90
        0
176
     1
290
     0
176
     1
 90
        1
176
     1
 40
0.0
176
     1
 90
        0
176
     1
290
     0
176
     1
290
     1
176
     1
290
     1
176
     1
290
     0
176
     1
290
     0
176
     1
290
     0
176
     1
290
     0
176
     1
290
     0
176
     1
290
     0
176
     1
 90
       50
176
     1
 40
0.0
176
     1
 40
1.0
176
     1
 90
        0
176
     1
 62
    18
176
     1
 90
       50
176
     1
 90
        3
176
     1
 62
     5
420
      255
176
     1
290
     0
176
     1
 90
       50
176
     1
 90
       50
176
     1
 90
       50
176
     1
290
     0
176
     1
 90
       50
176
     1
 62
   256
176
     0
 40
1.0
176
     0
 90
        2
176
     1
  1
strokes_ogs.tif
176
     1
290
     0
176
     1
 40
1.0
176
     1
 40
1.0
176
     1
  0
VISUALSTYLE
  5
A5
102
{ACAD_REACTORS
330
99
102
}
330
99
100
AcDbVisualStyle
  2
Brighten
 70
    12
177
     3
291
     1
 70
    58
 90
        2
176
     1
 90
        2
176
     1
 90
        1
176
     1
 90
        0
176
     1
 40
0.6
176
     1
 40
30.0
176
     1
 62
     7
420
 16777215
176
     1
 90
        1
176
     1
 90
        4
176
     1
 62
     7
176
     1
 62
   257
176
     1
 90
        1
176
     1
 90
        1
176
     1
 40
1.0
176
     1
 90
        8
176
     1
 62
     7
176
     1
 40
1.0
176
     1
 90
        1
176
     1
 90
        6
176
     1
 90
        2
176
     1
 62
     7
176
     1
 90
        5
176
     1
 90
        0
176
     1
 90
        0
176
     1
290
     0
176
     1
 90
        1
176
     1
 40
50.0
176
     1
 90
        0
176
     1
290
     0
176
     1
290
     1
176
     1
290
     1
176
     1
290
     0
176
     1
290
     0
176
     1
290
     0
176
     1
290
     0
176
     1
290
     0
176
     1
290
     0
176
     1
 90
       50
176
     1
 40
0.0
176
     1
 40
1.0
176
     1
 90
        0
176
     1
 62
    18
176
     1
 90
       50
176
     1
 90
        3
176
     1
 62
     5
420
      255
176
     1
290
     0
176
     1
 90
       50
176
     1
 90
       50
176
     1
 90
       50
176
     1
290
     0
176
     1
 90
       50
176
     1
 62
   256
176
     0
 40
1.0
176
     0
 90
        2
176
     1
  1
strokes_ogs.tif
176
     1
290
     0
176
     1
 40
1.0
176
     1
 40
1.0
176
     1
  0
VISUALSTYLE
  5
A9
102
{ACAD_REACTORS
330
99
102
}
330
99
100
AcDbVisualStyle
  2
ColorChange
 70
    16
177
     3
291
     1
 70
    58
 90
        2
176
     1
 90
        2
176
     1
 90
        3
176
     1
 90
        0
176
     1
 40
0.6
176
     1
 40
30.0
176
     1
 62
     8
420
  8421504
176
     1
 90
        1
176
     1
 90
        4
176
     1
 62
     7
176
     1
 62
   257
176
     1
 90
        1
176
     1
 90
        1
176
     1
 40
1.0
176
     1
 90
        8
176
     1
 62
     8
420
  8421504
176
     1
 40
1.0
176
     1
 90
        1
176
     1
 90
        6
176
     1
 90
        2
176
     1
 62
     7
176
     1
 90
        5
176
     1
 90
        0
176
     1
 90
        0
176
     1
290
     0
176
     1
 90
        1
176
     1
 40
0.0
176
     1
 90
        0
176
     1
290
     0
176
     1
290
     1
176
     1
290
     1
176
     1
290
     0
176
     1
290
     0
176
     1
290
     0
176
     1
290
     0
176
     1
290
     0
176
     1
290
     0
176
     1
 90
       50
176
     1
 40
0.0
176
     1
 40
1.0
176
     1
 90
        0
176
     1
 62
    18
176
     1
 90
       50
176
     1
 90
        3
176
     1
 62
     5
420
      255
176
     1
290
     0
176
     1
 90
       50
176
     1
 90
       50
176
     1
 90
       50
176
     1
290
     0
176
     1
 90
       50
176
     1
 62
   256
176
     0
 40
1.0
176
     0
 90
        2
176
     1
  1
strokes_ogs.tif
176
     1
290
     0
176
     1
 40
1.0
176
     1
 40
1.0
176
     1
  0
VISUALSTYLE
  5
A2
102
{ACAD_REACTORS
330
99
102
}
330
99
100
AcDbVisualStyle
  2
Conceptual
 70
     9
177
     3
291
     0
 70
    58
 90
        3
176
     1
 90
        2
176
     1
 90
        1
176
     1
 90
        0
176
     1
 40
0.6
176
     1
 40
30.0
176
     1
 62
     7
420
 16777215
176
     1
 90
        2
176
     1
 90
        2
176
     1
 62
     7
176
     1
 62
   257
176
     1
 90
        1
176
     1
 90
        1
176
     1
 40
40.0
176
     1
 90
        8
176
     1
 62
     7
176
     1
 40
1.0
176
     1
 90
        1
176
     1
 90
        6
176
     1
 90
        2
176
     1
 62
     7
176
     1
 90
        3
176
     1
 90
        0
176
     1
 90
        0
176
     1
290
     0
176
     1
 90
        1
176
     1
 40
0.0
176
     1
 90
        0
176
     1
290
     0
176
     1
290
     1
176
     1
290
     1
176
     1
290
     0
176
     1
290
     0
176
     1
290
     0
176
     1
290
     0
176
     1
290
     0
176
     1
290
     0
176
     1
 90
       50
176
     1
 40
0.0
176
     1
 40
1.0
176
     1
 90
        0
176
     1
 62
    18
176
     1
 90
       50
176
     1
 90
        3
176
     1
 62
     5
420
      255
176
     1
290
     0
176
     1
 90
       50
176
     1
 90
       50
176
     1
 90
       50
176
     1
290
     0
176
     1
 90
       50
176
     1
 62
   256
176
     0
 40
1.0
176
     0
 90
        2
176
     1
  1
strokes_ogs.tif
176
     1
290
     0
176
     1
 40
1.0
176
     1
 40
1.0
176
     1
  0
VISUALSTYLE
  5
A4
102
{ACAD_REACTORS
330
99
102
}
330
99
100
AcDbVisualStyle
  2
Dim
 70
    11
177
     3
291
     1
 70
    58
 90
        2
176
     1
 90
        2
176
     1
 90
        1
176
     1
 90
        0
176
     1
 40
0.6
176
     1
 40
30.0
176
     1
 62
     7
420
 16777215
176
     1
 90
        1
176
     1
 90
        4
176
     1
 62
     7
176
     1
 62
   257
176
     1
 90
        1
176
     1
 90
        1
176
     1
 40
1.0
176
     1
 90
        8
176
     1
 62
     7
176
     1
 40
1.0
176
     1
 90
        1
176
     1
 90
        6
176
     1
 90
        2
176
     1
 62
     7
176
     1
 90
        5
176
     1
 90
        0
176
     1
 90
        0
176
     1
290
     0
176
     1
 90
        1
176
     1
 40
-50.0
176
     1
 90
        0
176
     1
290
     0
176
     1
290
     1
176
     1
290
     1
176
     1
290
     0
176
     1
290
     0
176
     1
290
     0
176
     1
290
     0
176
     1
290
     0
176
     1
290
     0
176
     1
 90
       50
176
     1
 40
0.0
176
     1
 40
1.0
176
     1
 90
        0
176
     1
 62
    18
176
     1
 90
       50
176
     1
 90
        3
176
     1
 62
     5
420
      255
176
     1
290
     0
176
     1
 90
       50
176
     1
 90
       50
176
     1
 90
       50
176
     1
290
     0
176
     1
 90
       50
176
     1
 62
   256
176
     0
 40
1.0
176
     0
 90
        2
176
     1
  1
strokes_ogs.tif
176
     1
290
     0
176
     1
 40
1.0
176
     1
 40
1.0
176
     1
  0
VISUALSTYLE
  5
175
102
{ACAD_REACTORS
330
99
102
}
330
99
100
AcDbVisualStyle
  2
EdgeColorOff
 70
    22
177
     3
291
     1
 70
    58
 90
        2
176
     0
 90
        2
176
     0
 90
        0
176
     0
 90
        0
176
     0
 40
0.6
176
     0
 40
30.0
176
     0
 62
     7
420
 16777215
176
     0
 90
        1
176
     0
 90
        4
176
     0
 62
     7
176
     0
 62
   257
176
     0
 90
        1
176
     0
 90
        1
176
     0
 40
1.0
176
     0
 90
        8
176
     2
 62
     7
176
     0
 40
1.0
176
     0
 90
        1
176
     0
 90
        6
176
     0
 90
        2
176
     0
 62
     7
176
     0
 90
        5
176
     0
 90
        0
176
     0
 90
        0
176
     0
290
     0
176
     0
 90
        1
176
     0
 40
0.0
176
     0
 90
        0
176
     0
290
     0
176
     1
290
     1
176
     1
290
     1
176
     1
290
     0
176
     1
290
     0
176
     1
290
     0
176
     1
290
     0
176
     1
290
     0
176
     1
290
     0
176
     1
 90
       50
176
     1
 40
0.0
176
     1
 40
1.0
176
     1
 90
        0
176
     1
 62
    18
176
     1
 90
       50
176
     1
 90
        3
176
     1
 62
     5
420
      255
176
     1
290
     0
176
     1
 90
       50
176
     1
 90
       50
176
     1
 90
       50
176
     1
290
     0
176
     1
 90
       50
176
     1
 62
   256
176
     0
 40
1.0
176
     0
 90
        2
176
     1
  1
strokes_ogs.tif
176
     1
290
     0
176
     1
 40
1.0
176
     1
 40
1.0
176
     1
  0
VISUALSTYLE
  5
A8
102
{ACAD_REACTORS
330
99
102
}
330
99
100
AcDbVisualStyle
  2
Facepattern
 70
    15
177
     3
291
     1
 70
    58
 90
        2
176
     1
 90
        2
176
     1
 90
        1
176
     1
 90
        0
176
     1
 40
0.6
176
     1
 40
30.0
176
     1
 62
     7
420
 16777215
176
     1
 90
        1
176
     1
 90
        4
176
     1
 62
     7
176
     1
 62
   257
176
     1
 90
        1
176
     1
 90
        1
176
     1
 40
1.0
176
     1
 90
        8
176
     1
 62
     7
176
     1
 40
1.0
176
     1
 90
        1
176
     1
 90
        6
176
     1
 90
        2
176
     1
 62
     7
176
     1
 90
        5
176
     1
 90
        0
176
     1
 90
        0
176
     1
290
     0
176
     1
 90
        1
176
     1
 40
0.0
176
     1
 90
        0
176
     1
290
     0
176
     1
290
     1
176
     1
290
     1
176
     1
290
     0
176
     1
290
     0
176
     1
290
     0
176
     1
290
     0
176
     1
290
     0
176
     1
290
     0
176
     1
 90
       50
176
     1
 40
0.0
176
     1
 40
1.0
176
     1
 90
        0
176
     1
 62
    18
176
     1
 90
       50
176
     1
 90
        3
176
     1
 62
     5
420
      255
176
     1
290
     0
176
     1
 90
       50
176
     1
 90
       50
176
     1
 90
       50
176
     1
290
     0
176
     1
 90
       50
176
     1
 62
   256
176
     0
 40
1.0
176
     0
 90
        2
176
     1
  1
strokes_ogs.tif
176
     1
290
     0
176
     1
 40
1.0
176
     1
 40
1.0
176
     1
  0
VISUALSTYLE
  5
9A
102
{ACAD_REACTORS
330
99
102
}
330
99
100
AcDbVisualStyle
  2
Flat
 70
     0
177
     3
291
     1
 70
    58
 90
        2
176
     1
 90
        1
176
     1
 90
        1
176
     1
 90
        2
176
     1
 40
0.6
176
     1
 40
30.0
176
     1
 62
     7
420
 16777215
176
     1
 90
        0
176
     1
 90
        0
176
     1
 62
     7
176
     1
 62
   257
176
     1
 90
        1
176
     1
 90
        1
176
     1
 40
1.0
176
     1
 90
        8
176
     1
 62
     7
176
     1
 40
1.0
176
     1
 90
        1
176
     1
 90
        6
176
     1
 90
        2
176
     1
 62
     7
176
     1
 90
        5
176
     1
 90
        0
176
     1
 90
        0
176
     1
290
     0
176
     1
 90
       13
176
     1
 40
0.0
176
     1
 90
        0
176
     1
290
     0
176
     1
290
     1
176
     1
290
     1
176
     1
290
     0
176
     1
290
     0
176
     1
290
     0
176
     1
290
     0
176
     1
290
     0
176
     1
290
     0
176
     1
 90
       50
176
     1
 40
0.0
176
     1
 40
1.0
176
     1
 90
        0
176
     1
 62
    18
176
     1
 90
       50
176
     1
 90
        3
176
     1
 62
     5
420
      255
176
     1
290
     0
176
     1
 90
       50
176
     1
 90
       50
176
     1
 90
       50
176
     1
290
     0
176
     1
 90
       50
176
     1
 62
   256
176
     0
 40
1.0
176
     0
 90
        2
176
     1
  1
strokes_ogs.tif
176
     1
290
     0
176
     1
 40
1.0
176
     1
 40
1.0
176
     1
  0
VISUALSTYLE
  5
9B
102
{ACAD_REACTORS
330
99
102
}
330
99
100
AcDbVisualStyle
  2
FlatWithEdges
 70
     1
177
     3
291
     1
 70
    58
 90
        2
176
     1
 90
        1
176
     1
 90
        1
176
     1
 90
        2
176
     1
 40
0.6
176
     1
 40
30.0
176
     1
 62
     7
420
 16777215
176
     1
 90
        1
176
     1
 90
        0
176
     1
 62
     7
176
     1
 62
   257
176
     1
 90
        1
176
     1
 90
        1
176
     1
 40
1.0
176
     1
 90
        0
176
     1
 62
   257
176
     1
 40
1.0
176
     1
 90
        1
176
     1
 90
        6
176
     1
 90
        2
176
     1
 62
     7
176
     1
 90
        5
176
     1
 90
        0
176
     1
 90
        0
176
     1
290
     0
176
     1
 90
       13
176
     1
 40
0.0
176
     1
 90
        0
176
     1
290
     0
176
     1
290
     1
176
     1
290
     1
176
     1
290
     0
176
     1
290
     0
176
     1
290
     0
176
     1
290
     0
176
     1
290
     0
176
     1
290
     0
176
     1
 90
       50
176
     1
 40
0.0
176
     1
 40
1.0
176
     1
 90
        0
176
     1
 62
    18
176
     1
 90
       50
176
     1
 90
        3
176
     1
 62
     5
420
      255
176
     1
290
     0
176
     1
 90
       50
176
     1
 90
       50
176
     1
 90
       50
176
     1
290
     0
176
     1
 90
       50
176
     1
 62
   256
176
     0
 40
1.0
176
     0
 90
        2
176
     1
  1
strokes_ogs.tif
176
     1
290
     0
176
     1
 40
1.0
176
     1
 40
1.0
176
     1
  0
VISUALSTYLE
  5
9C
102
{ACAD_REACTORS
330
99
102
}
330
99
100
AcDbVisualStyle
  2
Gouraud
 70
     2
177
     3
291
     1
 70
    58
 90
        2
176
     1
 90
        2
176
     1
 90
        1
176
     1
 90
        2
176
     1
 40
0.6
176
     1
 40
30.0
176
     1
 62
     7
420
 16777215
176
     1
 90
        0
176
     1
 90
        0
176
     1
 62
     7
176
     1
 62
   257
176
     1
 90
        1
176
     1
 90
        1
176
     1
 40
1.0
176
     1
 90
        0
176
     1
 62
     7
176
     1
 40
1.0
176
     1
 90
        1
176
     1
 90
        6
176
     1
 90
        2
176
     1
 62
     7
176
     1
 90
        5
176
     1
 90
        0
176
     1
 90
        0
176
     1
290
     0
176
     1
 90
       13
176
     1
 40
0.0
176
     1
 90
        0
176
     1
290
     0
176
     1
290
     1
176
     1
290
     1
176
     1
290
     0
176
     1
290
     0
176
     1
290
     0
176
     1
290
     0
176
     1
290
     0
176
     1
290
     0
176
     1
 90
       50
176
     1
 40
0.0
176
     1
 40
1.0
176
     1
 90
        0
176
     1
 62
    18
176
     1
 90
       50
176
     1
 90
        3
176
     1
 62
     5
420
      255
176
     1
290
     0
176
     1
 90
       50
176
     1
 90
       50
176
     1
 90
       50
176
     1
290
     0
176
     1
 90
       50
176
     1
 62
   256
176
     0
 40
1.0
176
     0
 90
        2
176
     1
  1
strokes_ogs.tif
176
     1
290
     0
176
     1
 40
1.0
176
     1
 40
1.0
176
     1
  0
VISUALSTYLE
  5
9D
102
{ACAD_REACTORS
330
99
102
}
330
99
100
AcDbVisualStyle
  2
GouraudWithEdges
 70
     3
177
     3
291
     1
 70
    58
 90
        2
176
     1
 90
        2
176
     1
 90
        1
176
     1
 90
        2
176
     1
 40
0.6
176
     1
 40
30.0
176
     1
 62
     7
420
 16777215
176
     1
 90
        1
176
     1
 90
        0
176
     1
 62
     7
176
     1
 62
   257
176
     1
 90
        1
176
     1
 90
        1
176
     1
 40
1.0
176
     1
 90
        0
176
     1
 62
   257
176
     1
 40
1.0
176
     1
 90
        1
176
     1
 90
        6
176
     1
 90
        2
176
     1
 62
     7
176
     1
 90
        5
176
     1
 90
        0
176
     1
 90
        0
176
     1
290
     0
176
     1
 90
       13
176
     1
 40
0.0
176
     1
 90
        0
176
     1
290
     0
176
     1
290
     1
176
     1
290
     1
176
     1
290
     0
176
     1
290
     0
176
     1
290
     0
176
     1
290
     0
176
     1
290
     0
176
     1
290
     0
176
     1
 90
       50
176
     1
 40
0.0
176
     1
 40
1.0
176
     1
 90
        0
176
     1
 62
    18
176
     1
 90
       50
176
     1
 90
        3
176
     1
 62
     5
420
      255
176
     1
290
     0
176
     1
 90
       50
176
     1
 90
       50
176
     1
 90
       50
176
     1
290
     0
176
     1
 90
       50
176
     1
 62
   256
176
     0
 40
1.0
176
     0
 90
        2
176
     1
  1
strokes_ogs.tif
176
     1
290
     0
176
     1
 40
1.0
176
     1
 40
1.0
176
     1
  0
VISUALSTYLE
  5
A1
102
{ACAD_REACTORS
330
99
102
}
330
99
100
AcDbVisualStyle
  2
Hidden
 70
     6
177
     3
291
     0
 70
    58
 90
        1
176
     1
 90
        2
176
     1
 90
        2
176
     1
 90
        0
176
     1
 40
0.6
176
     1
 40
30.0
176
     1
 62
     7
420
 16777215
176
     1
 90
        2
176
     1
 90
        2
176
     1
 62
     7
176
     1
 62
   257
176
     1
 90
        2
176
     1
 90
        1
176
     1
 40
40.0
176
     1
 90
        0
176
     1
 62
   257
176
     1
 40
1.0
176
     1
 90
        1
176
     1
 90
        6
176
     1
 90
        2
176
     1
 62
     7
176
     1
 90
        3
176
     1
 90
        0
176
     1
 90
        0
176
     1
290
     0
176
     1
 90
        1
176
     1
 40
0.0
176
     1
 90
        0
176
     1
290
     0
176
     1
290
     1
176
     1
290
     1
176
     1
290
     0
176
     1
290
     0
176
     1
290
     0
176
     1
290
     0
176
     1
290
     0
176
     1
290
     0
176
     1
 90
       50
176
     1
 40
0.0
176
     1
 40
1.0
176
     1
 90
        0
176
     1
 62
    18
176
     1
 90
       50
176
     1
 90
        3
176
     1
 62
     5
420
      255
176
     1
290
     0
176
     1
 90
       50
176
     1
 90
       50
176
     1
 90
       50
176
     1
290
     0
176
     1
 90
       50
176
     1
 62
   256
176
     0
 40
1.0
176
     0
 90
        2
176
     1
  1
strokes_ogs.tif
176
     1
290
     0
176
     1
 40
1.0
176
     1
 40
1.0
176
     1
  0
VISUALSTYLE
  5
173
102
{ACAD_REACTORS
330
99
102
}
330
99
100
AcDbVisualStyle
  2
JitterOff
 70
    20
177
     3
291
     1
 70
    58
 90
        2
176
     0
 90
        2
176
     0
 90
        0
176
     0
 90
        0
176
     0
 40
0.6
176
     0
 40
30.0
176
     0
 62
     7
420
 16777215
176
     0
 90
        1
176
     0
 90
        4
176
     0
 62
     7
176
     0
 62
   257
176
     0
 90
        1
176
     0
 90
        1
176
     0
 40
1.0
176
     0
 90
       10
176
     2
 62
     7
176
     0
 40
1.0
176
     0
 90
        1
176
     0
 90
        6
176
     0
 90
        2
176
     0
 62
     7
176
     0
 90
        5
176
     0
 90
        0
176
     0
 90
        0
176
     0
290
     0
176
     0
 90
        1
176
     0
 40
0.0
176
     0
 90
        0
176
     0
290
     0
176
     1
290
     1
176
     1
290
     1
176
     1
290
     0
176
     1
290
     0
176
     1
290
     0
176
     1
290
     0
176
     1
290
     0
176
     1
290
     0
176
     1
 90
       50
176
     1
 40
0.0
176
     1
 40
1.0
176
     1
 90
        0
176
     1
 62
    18
176
     1
 90
       50
176
     1
 90
        3
176
     1
 62
     5
420
      255
176
     1
290
     0
176
     1
 90
       50
176
     1
 90
       50
176
     1
 90
       50
176
     1
290
     0
176
     1
 90
       50
176
     1
 62
   256
176
     0
 40
1.0
176
     0
 90
        2
176
     1
  1
strokes_ogs.tif
176
     1
290
     0
176
     1
 40
1.0
176
     1
 40
1.0
176
     1
  0
VISUALSTYLE
  5
A7
102
{ACAD_REACTORS
330
99
102
}
330
99
100
AcDbVisualStyle
  2
Linepattern
 70
    14
177
     3
291
     1
 70
    58
 90
        2
176
     1
 90
        2
176
     1
 90
        1
176
     1
 90
        0
176
     1
 40
0.6
176
     1
 40
30.0
176
     1
 62
     7
420
 16777215
176
     1
 90
        1
176
     1
 90
        4
176
     1
 62
     7
176
     1
 62
   257
176
     1
 90
        7
176
     1
 90
        7
176
     1
 40
1.0
176
     1
 90
        8
176
     1
 62
     7
176
     1
 40
1.0
176
     1
 90
        1
176
     1
 90
        6
176
     1
 90
        2
176
     1
 62
     7
176
     1
 90
        5
176
     1
 90
        0
176
     1
 90
        0
176
     1
290
     0
176
     1
 90
        1
176
     1
 40
0.0
176
     1
 90
        0
176
     1
290
     0
176
     1
290
     1
176
     1
290
     1
176
     1
290
     0
176
     1
290
     0
176
     1
290
     0
176
     1
290
     0
176
     1
290
     0
176
     1
290
     0
176
     1
 90
       50
176
     1
 40
0.0
176
     1
 40
1.0
176
     1
 90
        0
176
     1
 62
    18
176
     1
 90
       50
176
     1
 90
        3
176
     1
 62
     5
420
      255
176
     1
290
     0
176
     1
 90
       50
176
     1
 90
       50
176
     1
 90
       50
176
     1
290
     0
176
     1
 90
       50
176
     1
 62
   256
176
     0
 40
1.0
176
     0
 90
        2
176
     1
  1
strokes_ogs.tif
176
     1
290
     0
176
     1
 40
1.0
176
     1
 40
1.0
176
     1
  0
VISUALSTYLE
  5
174
102
{ACAD_REACTORS
330
99
102
}
330
99
100
AcDbVisualStyle
  2
OverhangOff
 70
    21
177
     3
291
     1
 70
    58
 90
        2
176
     0
 90
        2
176
     0
 90
        0
176
     0
 90
        0
176
     0
 40
0.6
176
     0
 40
30.0
176
     0
 62
     7
420
 16777215
176
     0
 90
        1
176
     0
 90
        4
176
     0
 62
     7
176
     0
 62
   257
176
     0
 90
        1
176
     0
 90
        1
176
     0
 40
1.0
176
     0
 90
        9
176
     2
 62
     7
176
     0
 40
1.0
176
     0
 90
        1
176
     0
 90
        6
176
     0
 90
        2
176
     0
 62
     7
176
     0
 90
        5
176
     0
 90
        0
176
     0
 90
        0
176
     0
290
     0
176
     0
 90
        1
176
     0
 40
0.0
176
     0
 90
        0
176
     0
290
     0
176
     1
290
     1
176
     1
290
     1
176
     1
290
     0
176
     1
290
     0
176
     1
290
     0
176
     1
290
     0
176
     1
290
     0
176
     1
290
     0
176
     1
 90
       50
176
     1
 40
0.0
176
     1
 40
1.0
176
     1
 90
        0
176
     1
 62
    18
176
     1
 90
       50
176
     1
 90
        3
176
     1
 62
     5
420
      255
176
     1
290
     0
176
     1
 90
       50
176
     1
 90
       50
176
     1
 90
       50
176
     1
290
     0
176
     1
 90
       50
176
     1
 62
   256
176
     0
 40
1.0
176
     0
 90
        2
176
     1
  1
strokes_ogs.tif
176
     1
290
     0
176
     1
 40
1.0
176
     1
 40
1.0
176
     1
  0
VISUALSTYLE
  5
A3
102
{ACAD_REACTORS
330
99
102
}
330
99
100
AcDbVisualStyle
  2
Realistic
 70
     8
177
     3
291
     0
 70
    58
 90
        2
176
     1
 90
        3
176
     1
 90
        0
176
     1
 90
        2
176
     1
 40
0.6
176
     1
 40
30.0
176
     1
 62
     7
420
 16777215
176
     1
 90
        0
176
     1
 90
        0
176
     1
 62
     7
176
     1
 62
   257
176
     1
 90
        1
176
     1
 90
        1
176
     1
 40
1.0
176
     1
 90
        8
176
     1
 62
   257
176
     1
 40
1.0
176
     1
 90
        1
176
     1
 90
        6
176
     1
 90
        2
176
     1
 62
     7
176
     1
 90
        3
176
     1
 90
        0
176
     1
 90
        0
176
     1
290
     0
176
     1
 90
       13
176
     1
 40
0.0
176
     1
 90
        0
176
     1
290
     0
176
     1
290
     1
176
     1
290
     1
176
     1
290
     0
176
     1
290
     0
176
     1
290
     0
176
     1
290
     0
176
     1
290
     0
176
     1
290
     0
176
     1
 90
       50
176
     1
 40
0.0
176
     1
 40
1.0
176
     1
 90
        0
176
     1
 62
    18
176
     1
 90
       50
176
     1
 90
        3
176
     1
 62
     5
420
      255
176
     1
290
     0
176
     1
 90
       50
176
     1
 90
       50
176
     1
 90
       50
176
     1
290
     0
176
     1
 90
       50
176
     1
 62
   256
176
     0
 40
1.0
176
     0
 90
        2
176
     1
  1
strokes_ogs.tif
176
     1
290
     0
176
     1
 40
1.0
176
     1
 40
1.0
176
     1
  0
VISUALSTYLE
  5
182
102
{ACAD_REACTORS
330
99
102
}
330
99
100
AcDbVisualStyle
  2
Shaded
 70
    27
177
     3
291
     0
 70
    58
 90
        2
176
     1
 90
        2
176
     1
 90
        1
176
     1
 90
        2
176
     1
 40
0.6
176
     1
 40
30.0
176
     1
 62
     7
420
 16777215
176
     1
 90
        0
176
     1
 90
        4
176
     1
 62
     7
176
     1
 62
   257
176
     1
 90
        1
176
     1
 90
        1
176
     1
 40
1.0
176
     1
 90
        8
176
     1
 62
   257
176
     1
 40
1.0
176
     1
 90
        1
176
     1
 90
        6
176
     1
 90
        2
176
     1
 62
     8
420
  7895160
176
     1
 90
        3
176
     1
 90
        0
176
     1
 90
        0
176
     1
290
     0
176
     1
 90
        5
176
     1
 40
0.0
176
     1
 90
        0
176
     1
290
     0
176
     1
290
     1
176
     1
290
     1
176
     1
290
     0
176
     1
290
     0
176
     1
290
     0
176
     1
290
     0
176
     1
290
     0
176
     1
290
     0
176
     1
 90
       50
176
     1
 40
0.0
176
     1
 40
1.0
176
     1
 90
        0
176
     1
 62
    18
176
     1
 90
       50
176
     1
 90
        3
176
     1
 62
     5
420
      255
176
     1
290
     0
176
     1
 90
       50
176
     1
 90
       50
176
     1
 90
       50
176
     1
290
     0
176
     1
 90
       50
176
     1
 62
   256
176
     0
 40
1.0
176
     0
 90
        2
176
     1
  1
strokes_ogs.tif
176
     1
290
     0
176
     1
 40
1.0
176
     1
 40
1.0
176
     1
  0
VISUALSTYLE
  5
181
102
{ACAD_REACTORS
330
99
102
}
330
99
100
AcDbVisualStyle
  2
Shaded with edges
 70
    26
177
     3
291
     0
 70
    58
 90
        2
176
     1
 90
        2
176
     1
 90
        1
176
     1
 90
        2
176
     1
 40
0.6
176
     1
 40
30.0
176
     1
 62
     7
420
 16777215
176
     1
 90
        1
176
     1
 90
       10
176
     1
 62
     7
176
     1
 62
   257
176
     1
 90
        2
176
     1
 90
        1
176
     1
 40
1.0
176
     1
 90
        8
176
     1
 62
   257
176
     1
 40
1.0
176
     1
 90
        1
176
     1
 90
        6
176
     1
 90
        2
176
     1
 62
     7
176
     1
 90
        3
176
     1
 90
        0
176
     1
 90
        0
176
     1
290
     0
176
     1
 90
        5
176
     1
 40
0.0
176
     1
 90
        0
176
     1
290
     0
176
     1
290
     1
176
     1
290
     1
176
     1
290
     0
176
     1
290
     0
176
     1
290
     0
176
     1
290
     0
176
     1
290
     0
176
     1
290
     0
176
     1
 90
       50
176
     1
 40
0.0
176
     1
 40
1.0
176
     1
 90
        0
176
     1
 62
    18
176
     1
 90
       50
176
     1
 90
        3
176
     1
 62
     5
420
      255
176
     1
290
     0
176
     1
 90
       50
176
     1
 90
       50
176
     1
 90
       50
176
     1
290
     0
176
     1
 90
       50
176
     1
 62
   256
176
     0
 40
1.0
176
     0
 90
        2
176
     1
  1
strokes_ogs.tif
176
     1
290
     0
176
     1
 40
1.0
176
     1
 40
1.0
176
     1
  0
VISUALSTYLE
  5
17E
102
{ACAD_REACTORS
330
99
102
}
330
99
100
AcDbVisualStyle
  2
Shades of Gray
 70
    23
177
     3
291
     0
 70
    58
 90
        2
176
     1
 90
        2
176
     1
 90
        3
176
     1
 90
        0
176
     1
 40
0.6
176
     1
 40
30.0
176
     1
 62
     7
420
 16777215
176
     1
 90
        2
176
     1
 90
        2
176
     1
 62
     7
176
     1
 62
     7
176
     1
 90
        1
176
     1
 90
        1
176
     1
 40
40.0
176
     1
 90
        8
176
     1
 62
     7
176
     1
 40
1.0
176
     1
 90
        1
176
     1
 90
        6
176
     1
 90
        2
176
     1
 62
     7
176
     1
 90
        3
176
     1
 90
        0
176
     1
 90
        0
176
     1
290
     0
176
     1
 90
        1
176
     1
 40
0.0
176
     1
 90
        0
176
     1
290
     0
176
     1
290
     1
176
     1
290
     1
176
     1
290
     0
176
     1
290
     0
176
     1
290
     0
176
     1
290
     0
176
     1
290
     0
176
     1
290
     0
176
     1
 90
       50
176
     1
 40
0.0
176
     1
 40
1.0
176
     1
 90
        0
176
     1
 62
    18
176
     1
 90
       50
176
     1
 90
        3
176
     1
 62
     5
420
      255
176
     1
290
     0
176
     1
 90
       50
176
     1
 90
       50
176
     1
 90
       50
176
     1
290
     0
176
     1
 90
       50
176
     1
 62
   256
176
     0
 40
1.0
176
     0
 90
        2
176
     1
  1
strokes_ogs.tif
176
     1
290
     0
176
     1
 40
1.0
176
     1
 40
1.0
176
     1
  0
VISUALSTYLE
  5
17F
102
{ACAD_REACTORS
330
99
102
}
330
99
100
AcDbVisualStyle
  2
Sketchy
 70
    24
177
     3
291
     0
 70
    58
 90
        1
176
     1
 90
        2
176
     1
 90
        2
176
     1
 90
        0
176
     1
 40
0.6
176
     1
 40
30.0
176
     1
 62
     7
420
 16777215
176
     1
 90
        2
176
     1
 90
        2
176
     1
 62
     7
176
     1
 62
     7
176
     1
 90
        1
176
     1
 90
        1
176
     1
 40
40.0
176
     1
 90
       11
176
     1
 62
     7
176
     1
 40
1.0
176
     1
 90
        1
176
     1
 90
        6
176
     1
 90
        2
176
     1
 62
     7
176
     1
 90
        6
176
     1
 90
        0
176
     1
 90
        0
176
     1
290
     0
176
     1
 90
        1
176
     1
 40
0.0
176
     1
 90
        0
176
     1
290
     0
176
     1
290
     1
176
     1
290
     1
176
     1
290
     0
176
     1
290
     0
176
     1
290
     0
176
     1
290
     0
176
     1
290
     0
176
     1
290
     0
176
     1
 90
       50
176
     1
 40
0.0
176
     1
 40
1.0
176
     1
 90
        0
176
     1
 62
    18
176
     1
 90
       50
176
     1
 90
        3
176
     1
 62
     5
420
      255
176
     1
290
     0
176
     1
 90
       50
176
     1
 90
       50
176
     1
 90
       50
176
     1
290
     0
176
     1
 90
       50
176
     1
 62
   256
176
     0
 40
1.0
176
     0
 90
        2
176
     1
  1
strokes_ogs.tif
176
     1
290
     0
176
     1
 40
1.0
176
     1
 40
1.0
176
     1
  0
VISUALSTYLE
  5
A6
102
{ACAD_REACTORS
330
99
102
}
330
99
100
AcDbVisualStyle
  2
Thicken
 70
    13
177
     3
291
     1
 70
    58
 90
        2
176
     1
 90
        2
176
     1
 90
        1
176
     1
 90
        0
176
     1
 40
0.6
176
     1
 40
30.0
176
     1
 62
     7
420
 16777215
176
     1
 90
        1
176
     1
 90
        4
176
     1
 62
     7
176
     1
 62
   257
176
     1
 90
        1
176
     1
 90
        1
176
     1
 40
1.0
176
     1
 90
       12
176
     1
 62
     7
176
     1
 40
1.0
176
     1
 90
        1
176
     1
 90
        6
176
     1
 90
        2
176
     1
 62
     7
176
     1
 90
        5
176
     1
 90
        0
176
     1
 90
        0
176
     1
290
     0
176
     1
 90
        1
176
     1
 40
0.0
176
     1
 90
        0
176
     1
290
     0
176
     1
290
     1
176
     1
290
     1
176
     1
290
     0
176
     1
290
     0
176
     1
290
     0
176
     1
290
     0
176
     1
290
     0
176
     1
290
     0
176
     1
 90
       50
176
     1
 40
0.0
176
     1
 40
1.0
176
     1
 90
        0
176
     1
 62
    18
176
     1
 90
       50
176
     1
 90
        3
176
     1
 62
     5
420
      255
176
     1
290
     0
176
     1
 90
       50
176
     1
 90
       50
176
     1
 90
       50
176
     1
290
     0
176
     1
 90
       50
176
     1
 62
   256
176
     0
 40
1.0
176
     0
 90
        2
176
     1
  1
strokes_ogs.tif
176
     1
290
     0
176
     1
 40
1.0
176
     1
 40
1.0
176
     1
  0
VISUALSTYLE
  5
A0
102
{ACAD_REACTORS
330
99
102
}
330
99
100
AcDbVisualStyle
  2
Wireframe
 70
     5
177
     3
291
     0
 70
    58
 90
        0
176
     1
 90
        2
176
     1
 90
        0
176
     1
 90
        0
176
     1
 40
0.6
176
     1
 40
30.0
176
     1
 62
     7
420
 16777215
176
     1
 90
        1
176
     1
 90
        4
176
     1
 62
     7
176
     1
 62
   257
176
     1
 90
        1
176
     1
 90
        1
176
     1
 40
1.0
176
     1
 90
        0
176
     1
 62
   257
176
     1
 40
1.0
176
     1
 90
        1
176
     1
 90
        6
176
     1
 90
        2
176
     1
 62
     7
176
     1
 90
        3
176
     1
 90
        0
176
     1
 90
        0
176
     1
290
     0
176
     1
 90
        1
176
     1
 40
0.0
176
     1
 90
        0
176
     1
290
     0
176
     1
290
     1
176
     1
290
     1
176
     1
290
     0
176
     1
290
     0
176
     1
290
     0
176
     1
290
     0
176
     1
290
     0
176
     1
290
     0
176
     1
 90
       50
176
     1
 40
0.0
176
     1
 40
1.0
176
     1
 90
        0
176
     1
 62
    18
176
     1
 90
       50
176
     1
 90
        3
176
     1
 62
     5
420
      255
176
     1
290
     0
176
     1
 90
       50
176
     1
 90
       50
176
     1
 90
       50
176
     1
290
     0
176
     1
 90
       50
176
     1
 62
   256
176
     0
 40
1.0
176
     0
 90
        2
176
     1
  1
strokes_ogs.tif
176
     1
290
     0
176
     1
 40
1.0
176
     1
 40
1.0
176
     1
  0
VISUALSTYLE
  5
180
102
{ACAD_REACTORS
330
99
102
}
330
99
100
AcDbVisualStyle
  2
X-Ray
 70
    25
177
     3
291
     0
 70
    58
 90
        2
176
     1
 90
        2
176
     1
 90
        1
176
     1
 90
        1
176
     1
 40
0.5
176
     1
 40
30.0
176
     1
 62
     7
420
 16777215
176
     1
 90
        1
176
     1
 90
        0
176
     1
 62
     7
176
     1
 62
   257
176
     1
 90
        1
176
     1
 90
        1
176
     1
 40
1.0
176
     1
 90
        8
176
     1
 62
     7
176
     1
 40
1.0
176
     1
 90
        1
176
     1
 90
        6
176
     1
 90
        2
176
     1
 62
     7
176
     1
 90
        3
176
     1
 90
        0
176
     1
 90
        0
176
     1
290
     0
176
     1
 90
       13
176
     1
 40
0.0
176
     1
 90
        0
176
     1
290
     0
176
     1
290
     1
176
     1
290
     1
176
     1
290
     0
176
     1
290
     0
176
     1
290
     0
176
     1
290
     0
176
     1
290
     0
176
     1
290
     0
176
     1
 90
       50
176
     1
 40
0.0
176
     1
 40
1.0
176
     1
 90
        0
176
     1
 62
    18
176
     1
 90
       50
176
     1
 90
        3
176
     1
 62
     5
420
      255
176
     1
290
     0
176
     1
 90
       50
176
     1
 90
       50
176
     1
 90
       50
176
     1
290
     0
176
     1
 90
       50
176
     1
 62
   256
176
     0
 40
1.0
176
     0
 90
        2
176
     1
  1
strokes_ogs.tif
176
     1
290
     0
176
     1
 40
1.0
176
     1
 40
1.0
176
     1
  0
DICTIONARYVAR
  5
F0
102
{ACAD_REACTORS
330
66
102
}
330
66
100
DictionaryVariables
280
     0
  1
1:1
  0
DICTIONARYVAR
  5
EF
102
{ACAD_REACTORS
330
66
102
}
330
66
100
DictionaryVariables
280
     0
  1
STANDARD
  0
DICTIONARYVAR
  5
89
102
{ACAD_REACTORS
330
66
102
}
330
66
100
DictionaryVariables
280
     0
  1
STANDARD
  0
DICTIONARYVAR
  5
1B7
102
{ACAD_REACTORS
330
66
102
}
330
66
100
DictionaryVariables
280
     0
  1
Imperial24
  0
DICTIONARYVAR
  5
1B8
102
{ACAD_REACTORS
330
66
102
}
330
66
100
DictionaryVariables
280
     0
  1
Imperial24
  0
DICTIONARYVAR
  5
67
102
{ACAD_REACTORS
330
66
102
}
330
66
100
DictionaryVariables
280
     0
  1
2
  0
DICTIONARYVAR
  5
6B
102
{ACAD_REACTORS
330
66
102
}
330
66
100
DictionaryVariables
280
     0
  1
1
  0
DICTIONARYVAR
  5
14D
102
{ACAD_REACTORS
330
66
102
}
330
66
100
DictionaryVariables
280
     0
  1
0
  0
DICTIONARYVAR
  5
14E
102
{ACAD_REACTORS
330
66
102
}
330
66
100
DictionaryVariables
280
     0
  1
0
  0
DICTIONARY
  5
194
330
22
100
AcDbDictionary
280
     1
281
     1
  0
DICTIONARY
  5
188
330
97
100
AcDbDictionary
280
     1
281
     1
  3
FBXASSET
360
189
  0
DICTIONARY
  5
186
330
96
100
AcDbDictionary
280
     1
281
     1
  3
FBXASSET
360
187
  0
DICTIONARY
  5
110
330
98
100
AcDbDictionary
280
     1
281
     1
  3
BUMPTILE
360
112
  3
DIFFUSETILE
360
111
  3
FBXASSET
360
18A
  3
OPACITYTILE
360
113
  3
REFLECTIONTILE
360
114
  0
DICTIONARY
  5
104
330
87
100
AcDbDictionary
280
     1
281
     1
  3
ACAD_ROUNDTRIP_2008_TABLESTYLE_CELLSTYLEMAP
360
503
  0
XRECORD
  5
189
102
{ACAD_REACTORS
330
188
102
}
330
188
100
AcDbXrecord
280
     1
 70
     1
 90
429727718
  1
508B35C9-AEE7-456F-BE74-D52651303AC6
310
504B03040A0000080000B670623B3DEE336E79000000790000001B0000006175746F6465736B2D64657369676E2D7061636B6167652E786D6C3C3F786D6C2076657273696F6E3D22312E302220656E636F64696E673D227574662D3822203F3E3C666F726D6174733E3C666F726D61743E687474703A2F2F736368656D612E
310
6175746F6465736B2E636F6D2F64657369676E2D7061636B6167652F323030393C2F666F726D61743E3C2F666F726D6174733E504B0304140006080800B670623BD486FD9CA0000000F4000000130000005B436F6E74656E745F54797065735D2E786D6C7D8EC10E82300C865F65E91D8A1E8C310C0EEA1BF002731658846E
310
D98AC1B77784ABF1D8FE5FBFBF75BBCE937A534CCEB38643598122B6FEE978D0B0485F9C41B54DDD7D022595594E1A469170414C76A4D9A4D207E29CF43ECE46F218070CC6BECC4078ACAA135ACF422C856C0E68EA1BF5669944DDD7BCDE7B1F8E415D77AECB980613C2E4AC91FC167A2B244592486606FC29C8FD7F045B9A
310
EF7053A7E60B504B0304140006080800B670623B28ED286BEB0000007C01000008000000636F72652E786D6C8D90416EC3201045AF82665B6183218D6D61A254764FD00B204C5C94182C03558F5F9C3852BBEB6A467FFE9B197D71FA9E6FE8CBACC17AD7012D0820E3B41FAD9B3A48F1826B40272956EFE32F1B20A766D3C1
310
268314D3EAD3B24BDABB685CCCAAF3A3D94515828980F42D371D04FD696655A814B3235C8B45E9AB9A4C419F5D8653B2237A1CB163DE672FD6AC209BF3C08E0D1B30EB19C3FC9D72FCC6EB231EFA33EDE96BDD341517E5064B11EDFCBCAF57A3A2194156843498524CAA0FCA5B7268F9E185D42D21A2DCEC7FA0B48CFF8492
310
759155FBBB0F2C80A4F991FB408A72CB22977B50B96EB9C91F504B0304140006080800B670623B55019EA25F0000007C00000007000000636E782E786D6C4DCB3B0E80201045D1AD90E915ED2CF8AC45050C11660C8261F98AB1B07AC9C97D42D718D865D3E909258CFD00CCE24AC6E326A164D74DC0B4128928FF32603847
310
2BA13128B1252AC747C6BAB984FC68F0B87FE8960A5C09FE86CFB69FBA01504B0304140006080800B670623B7BC41AC871010000D40300000C0000006662782F636F72652E786D6CC553ED6E8320147D15C2DF4501B56B6D90A64BBB27D80B50A5CE54C120983EFEAE1F4DD7A56BBA5FF3879273EEE59E7310BE393735EA95
310
ED2AA333CC428A91D2B9292A5D66D8BB63B0C26823B835C67D2BC348CB46657880B1E0A535BE9DA1DC68A7B403549B42CDA0EC3AE530CA6B5864B8CB3F552343E91D5474A7B095F949962A6421D0502778E72C0840D390E18DC5F170E664C205F7BE2A66B62A605A75AC94C522DDEEE3651AEF837817C741F2CE92E02D592D
310
83FD6ECB76EC7595A651C2C9D02CB8AB9A8BBADC2AE954814544691A3016D0E883256BBA58278B17BA5A53CAC9507ED3E4DBE2C9265F691747B3DCA9ADC382819091F8E1162272A8933DE82182932144F88C09DF060D8140C84E1EEA8B8F1340BDCA9DB1093085F157AA97B557309586747CD0EF0B4EA64E983A6E0EAEEFCE
310
889E9EF17847386AA94B30211D2C0FDE0D3AF9A4610EAD5536E8DD1969631B593F67E381C33F5157F17725E5A636F6BF1491F980C8FC7B90E13E8A2F504B0304140006080800B670623B70102A487D0000009D0000000B0000006662782F636E782E786D6C4DCCD10A83201886E15B91FFDC95A5C30335ACCDFB886521330D
310
A76397BF1A1DECE883878F57749FD5A3B74D2F17830472A901D9F088930B8B849267CC01754AA418F3DF0D5018572BE160506249B16C274D761E8BCFBB7A179E27F65CB39A0F14D396184C9921B81F34C3ACA1B4B99ABB6E6F062A25AA5F69DF23ACBE504B0304140006080800B670623B3610CA3329010000120200003100
310
00006662782F42384135303843342D343331462D343546312D424341352D3532343432364645413344462F636F72652E786D6C8D515B6EC32010BC0AE22B55850D0E446E848992B43E412FE000495162B07854397EA176A4F62F3F2C9A9D991D58BEBB8F37F0AD7D30CE76905418026DA553C65E3A98E219B510EC04F7CEC5
310
3F3408EC30EA0E16180A7EF12E4D0B249D8DDAC68C5AA7F4020E21E80881BCE54B0783FCD2E3500D296646B856D320AFC34557A4CAEDCC133C449F0380794839A138B47B86DB2345744D7A44594FD0E1B867883594369BFE63BF7EEF793D0B054FC9A8456E548E63CE46FB674D8A58F068C6477CE9F510B582A2C1F80D1182
310
70F349E816B32D65AFB8DD62CCEB42FF274A937A52948C8DEB66893BCB021484D7734370E5D2E9F608A3EF93F3119479ABA0E50B14B8C298119A43CCC4FCFCECB8A18B6388CEE7EF5D5D4F994BD86CBBA182D76543B9FCAE2FD7B24DF103504B0304140006080800B670623B1B8617914E0100003303000030000000666278
310
2F42384135303843342D343331462D343546312D424341352D3532343432364645413344462F636E782E786D6CD593C16EC32010447F0571AD6CE3D489D20813A9877E410FBD62D82434182CC055F3F75D1292E692438FBD206B7698593D61BEFD1E2DF982108D773D6D6B460938E5B571FB9ECE6957AD29D90A1EBC4F7736
310
4A9C1CA1A759A682EF839FA72269D8C9D92654AD71C72206887E0E0A22CAF926B15E498B01E0AA19451807D01A34B919F16B070157417138917400F2F6FA41FCF0092A45DEE414C19BDC21783E4BD39D891265658C3D8DEA00A3ACE59CBC8678ACB54CB26EEB6BD7839D7E9348BE70AD9C8321B9BCA7F9A4A26C542347DEE0
310
50F09802D22BA6749A800A394DD62899107273365E3C82CFC6A55557BC06C10774B7ABE7AEC3B0F34CF06446280E154026D0542C187BA9DAB6628BF7B6DBB0E5A65B3EB1F58631DE64BBE083F7B65CC218087E22CABB042E51D1F2268F1FE12B3EA24D40D63E9CFE00120194D60B9D5BC67FE6D39CDF37E20AF817881F504B
310
0304140006080800B670623BBFEF2E3B690500003C100000340000006662782F42384135303843342D343331462D343546312D424341352D3532343432364645413344462F6F626A656374732E786D6CAD575D739B3814FD2B0CFB0C98D84E931D4227B6938EA793B6534F3BFB90198F0099B001899144EAECAFDF231018B0
310
D37A3FFC609090EEE7B94757C1FB7D915B2F54C88CB31BDB7727B64559CC938CA53776A576CE956DBD0F03C1B9EA2DB32D460A7A63EB693B0C52C1ABD24C257447AA5C8D66EF177F5832A68CDA569C13296F6C193FD182B8A4523CA1F2D94D88226EBADBBBBEDB2C1C8A4D05299F46424B222853B014F30C52ACC6287F389C
310
D85E1878FA7B18E87FB36AFAF62AAFF667A83F635211161F291B8999FAB3D5DDC5FCDA99CF6653677679E13B8BFBC5CAF1DF4D27CBCBE5F2FAF6EE1A8AA51290642C117467871F101B91C581D77CEA2C36869F3229E68CD1B8F61F1ED6361B89092D294B90C78C4A68EB793D190E7D1D9BDEE7A91E1B95FDE9F3BCEAEFE809
310
6A6D6F9F7D4B79F4275C90E7A04248AA51D5C4C738DAE06F72885AC4796EBE65D22A88A22223B995679120E2D50EB1542F098381188D4EA111AE3DB043FF20AF6F2B4AE3D7D83D65E5AECA730D4D3BAC91BD05FEA992B565D95F549CD6069B90AB2A63EACA38A45E4B6A87D781574F86817E4C2FCCC72690D62E2729520E37
310
9BAF234797BAF6D62B3BFC781FED37BA1E4F2B2F052FA9501A3E80569BB8F6A9A364D4FA67654E6F803383981F82F21591FF84F23D9882BC896C3FDBCF8C162508933B2E0AE4C69DD43F6BD2BE38DDDBF10BF86CB4FA784D37F3AF16075E67EC9030DECA1FC0A55373F5DFF3378C591FA9BDF485C10B0A8C8BA909E5262639
310
A8E72163488806A595734C81CB77D1DE0ED7604A303B76913CEC0272F412782FF88EFF4636D8AA56DF7B322474C4B767303F625997056C7B032C473C592B36CEBD15F3F9FF5233B7ABCDC74D257624A60F8658567497B14CE1EC3C80B76FD02011038F9EE9EB0F2E12387A9C844D3F09855125116D1D731DF8B43D2CF4E0A0
310
79A020C6BE946BCE0B7EA1E1219331CD73C228AF5A2DDD31A4B1DA918CE91350854D40A71723140BFA92E94E62B0626016CEFA5864A50E5977E8753CEDBEE1CBB7F52780D20E17AF0BA0F5F9B02A3AD07DCC732EB6D1EBB661421BE0C39E21BABF0FE16D22EA6929407C8DE596724C88B749B6DB5512BC7B228ADFD7CB7EA6
310
3A22397E690BA8D5D8D4E40CEC8CDA23C2C0B7D5898640101CEC9C6D331CE328CB93CAFBBAC70A642DF70DF95155945B52F08AA973C23469FD69ADEF84F7BB18F983A8F8C90E37F5D35980B2139A1C523540813E824EF83448CF7C72B598CE97D7CEEDDDDD3B6736BFBC771677EF66CE6A7E7139F7A793E9EDF2B2B3A8B624
310
0CDA13AA5F8388264EC4A0129909F3B7F5A16CEDF08128E97D680ACA4B9BE7B7B58BB638F0B00700EF36AE8B32A705658A68F83EE897FC2B41573190D1CCAF0B92D233A47CFEB019D9809933F67DD1A5467F8CF69AD9A5AE859342D45355448C64F968A371DC2D596ADC6E43D93D1B466F877A64E2893E54F23C4B40388995
310
525E5005DA3983ED45412510D3EFCA13737B3863F74BD30F2A12E5B4B5E489A025CE25500DB855B11ACE5BBFA185D35DD48D8DC3CE7DC69F2944DB42AA6F6CF09BCA622ADD08C7A36E7C6AE18000BAB08E040135C2D21C9D75B3A91B77BB746C403F38018DFE6EC939DD92F16B40BC05294B9CDA035AAD6D330AE27FE4786B
310
8E45145EA34A75BE1C263A676A35A8ACC6297337400BF16C54EF515F3F77CB77EB3583889C754FFA29081AA98E2222ADEF05DA3E63D2EDEA8B8756C05A7FB6CABC4A91CBF325398202CC952E70A008A830324BA200D5E5EF8F5F04C75DB4B0EE3340E071C98B823333B83577596BF3849B69F2085AA0FAFA212F26BEFF5877
310
FDE622B28D88A42E49E43326DA82D31E8CB006401E1DA726059ECEC168F97A6599036306A135688F9AD2E61A6EA178F4CD51974A9F2CCB9F36FE5EBD14601068D9C3BF01504B0304140006080000B670623B000000000000000000000000350000006662782F42384135303843342D343331462D343546312D424341352D35
310
32343432364645413344462F76657274696365732E62696E504B0304140006080800B670623BF270F1330600000004000000360000006662782F42384135303843342D343331462D343546312D424341352D3532343432364645413344462F747269616E676C65732E62696E636660600000504B0304140006080000B67062
310
3B000000000000000000000000370000006662782F42384135303843342D343331462D343546312D424341352D3532343432364645413344462F617474726962757465732E62696E504B0304140006080800B670623B08DA0BD19000000041010000360000006662782F42384135303843342D343331462D343546312D4243
310
41352D3532343432364645413344462F6469726563746F72792E786D6C858F410AC3201045AF22B36F53E9A60B35CBEEBAE80D244E44489C6234F4F835464A48035D0DF398FF9F8AF63D0E6CC63039F212F8F9020C7D47C6792B21C5FE7403D62A1188E2E60C98D7234A5830286103A55745067B9D86B8A3CF9C7F90C11DE6
310
07FB144396D7B6A82D282E9A152AD114D5EF2CB866EEE831B8EEA07A7BB5A8D7D61A2BAAEB7FD5F70921FF497D00504B0304140006080800B670623B3B4606F3FE000000A00100003B0000006662782F42384135303843342D343331462D343546312D424341352D3532343432364645413344462F7265736F75726365732F
310
636F72652E786D6C8D504B6E833010BD0A9A6D65B08134808CA354A427E8052C332156828DFCA97AFC9A40A576D7CDCCE87D344F8F9FBEE647F689CE6B6B7A6039850C8DB2A336530F315C4903D94970676DF82583CCC8197B5861107C72362E3BA4AC096842428D1D7107A5F71820538F74F4E0D50D6799CB1892C2DFF345
310
AABB9C306779A2934E701F5C0A906D4FD609C2A1B7D129F4BCD858C163D4E3AED163FAA9AF1A1D88F67CA98E6D35906AA82A52BFB39ABCD5CD915C86331BD86BD3B665CD8BD52C78D0F34F46E550061C419494B6843142CB0F5677F4D0D58717DA7494F26295FF31C565FCA7296A13AA728FBBD93C0896823C09C18BB5AFB4
310
9E65A6BD762BBE01504B010214000A0000080000B670623B3DEE336E79000000790000001B00000000000000000000000000000000006175746F6465736B2D64657369676E2D7061636B6167652E786D6C504B01021400140006080800B670623BD486FD9CA0000000F40000001300000000000000000000000000B2000000
310
5B436F6E74656E745F54797065735D2E786D6C504B01021400140006080800B670623B28ED286BEB0000007C010000080000000000000000000000000083010000636F72652E786D6C504B01021400140006080800B670623B55019EA25F0000007C000000070000000000000000000000000094020000636E782E786D6C50
310
4B01021400140006080800B670623B7BC41AC871010000D40300000C00000000000000000000000000180300006662782F636F72652E786D6C504B01021400140006080800B670623B70102A487D0000009D0000000B00000000000000000000000000B30400006662782F636E782E786D6C504B01021400140006080800B6
310
70623B3610CA3329010000120200003100000000000000000000000000590500006662782F42384135303843342D343331462D343546312D424341352D3532343432364645413344462F636F72652E786D6C504B01021400140006080800B670623B1B8617914E010000330300003000000000000000000000000000D10600
310
006662782F42384135303843342D343331462D343546312D424341352D3532343432364645413344462F636E782E786D6C504B01021400140006080800B670623BBFEF2E3B690500003C10000034000000000000000000000000006D0800006662782F42384135303843342D343331462D343546312D424341352D35323434
310
32364645413344462F6F626A656374732E786D6C504B01021400140006080000B670623B0000000000000000000000003500000000000000000000000000280E00006662782F42384135303843342D343331462D343546312D424341352D3532343432364645413344462F76657274696365732E62696E504B010214001400
310
06080800B670623BF270F133060000000400000036000000000000000000000000007B0E00006662782F42384135303843342D343331462D343546312D424341352D3532343432364645413344462F747269616E676C65732E62696E504B01021400140006080000B670623B00000000000000000000000037000000000000
310
00000000000000D50E00006662782F42384135303843342D343331462D343546312D424341352D3532343432364645413344462F617474726962757465732E62696E504B01021400140006080800B670623B08DA0BD1900000004101000036000000000000000000000000002A0F00006662782F42384135303843342D3433
310
31462D343546312D424341352D3532343432364645413344462F6469726563746F72792E786D6C504B01021400140006080800B670623B3B4606F3FE000000A00100003B000000000000000000000000000E1000006662782F42384135303843342D343331462D343546312D424341352D3532343432364645413344462F72
310
65736F75726365732F636F72652E786D6C504B0506000000000E000E0080040000651100000000
  0
XRECORD
  5
187
102
{ACAD_REACTORS
330
186
102
}
330
186
100
AcDbXrecord
280
     1
 70
     1
 90
429727718
  1
887D55A9-D0DD-414E-B741-A7DCD4DA2B4C
310
504B03040A0000080000B670623B3DEE336E79000000790000001B0000006175746F6465736B2D64657369676E2D7061636B6167652E786D6C3C3F786D6C2076657273696F6E3D22312E302220656E636F64696E673D227574662D3822203F3E3C666F726D6174733E3C666F726D61743E687474703A2F2F736368656D612E
310
6175746F6465736B2E636F6D2F64657369676E2D7061636B6167652F323030393C2F666F726D61743E3C2F666F726D6174733E504B0304140006080800B670623BD486FD9CA0000000F4000000130000005B436F6E74656E745F54797065735D2E786D6C7D8EC10E82300C865F65E91D8A1E8C310C0EEA1BF002731658846E
310
D98AC1B77784ABF1D8FE5FBFBF75BBCE937A534CCEB38643598122B6FEE978D0B0485F9C41B54DDD7D022595594E1A469170414C76A4D9A4D207E29CF43ECE46F218070CC6BECC4078ACAA135ACF422C856C0E68EA1BF5669944DDD7BCDE7B1F8E415D77AECB980613C2E4AC91FC167A2B244592486606FC29C8FD7F045B9A
310
EF7053A7E60B504B0304140006080800B670623BBC1638F5EC0000007C01000008000000636F72652E786D6C8D90416EC3201045AF82665B61836BE2D8C24471DB9CA01740401C94182C03558F5F9C3852BBEB6A467FFE9B197D7EF89E6EE8CB2CC17AD7032D0820E394D7D68D3DA478C67B4007C117EFE32F1B202727D3C3
310
2A83E0E3E2D3BC49CABB685CCCAAF3DA6CA20CC14440EA969B1E82BA98491632C5EC08D76296EA2A4753D06797E194AC468F2356E77DF66CCD02825543D50CACC62D39ED70FDC68EB8FD68F6F8787A6784342D1DDA1D2F5758F068A7E77DB518198D065111D2624A31A93E69DD11D6D5EC85EC3B4278B9DAFF4069D6FF8492
310
75F1B5DADE7D600104CD8FDC0782976B16B9DC83CA75CD4DFC00504B0304140006080800B670623B55019EA25F0000007C00000007000000636E782E786D6C4DCB3B0E80201045D1AD90E915ED2CF8AC45050C11660C8261F98AB1B07AC9C97D42D718D865D3E909258CFD00CCE24AC6E326A164D74DC0B4128928FF326038
310
472BA13128B1252AC747C6BAB984FC68F0B87FE8960A5C09FE86CFB69FBA01504B0304140006080800B670623B3586FFB671010000D40300000C0000006662782F636F72652E786D6CC553ED6E8320147D15C2DF4541A76D6D90A6DDD627D80B50A4CE54C120983EFEAE1F4DD7A55BBA5FF3879273EEE59E7310B6393735EA
310
95ED2AA3731C851423A5A5292A5DE6D8BB63B0C268C39935C67D29C3488B46E578803167A535BE9D2169B453DA01AA4DA16650749D7218C91A1639EEE4876A4428BC838AEE14B6429E44A9C228041AEA38EB9C0501681A32BC313F1ECE8C4C3867DE57C5CC56054CAB8E95B298A7F12E5EEED224C8E87E11242FE936C8DE96
310
AB60BB7F4D295D66D12E5B30323473E6AAE6A24E5A259C2A308F29CD82280A68FC1E256B9AAE93F489AED694323294DF34F9B678B0C957DA3DC7B3DCA9ADC33C022123F1CD2D44E450277AD04338234388F01913BE0D1A0281909D38D4171F27807A259DB1093085F157AA17B557309586747CD0CF0B46A64E983A6E0EAEEF
310
CE881F9EF1FB8E70D44297604238581EBC1B74B249C31C5AAB6CD0BB33D2C636A27ECCC62F0EFF445DC5DF95244D6DEC7F2922F30191F9F720C37DE49F504B0304140006080800B670623B4220A0FF7D0000009D0000000B0000006662782F636E782E786D6C4DCCD10A83201886E15B91FFDCE542CB0335D0EC3E6259C84A
310
C3E9D8E5AF46073BFAE0E1E315DD675BD1DBA5978F41C2FD4600B9F088930F8B849267CC01754AA418F3DF0D50183727E164506249B1EC174D6E1ECB9A0F5D7D785E68DB8151CD286E5A5363CA6B8A39E90D36D40E96B086F55A43A544F52B1D7B86D517504B0304140006080800B670623B2FA3FEDE290100001202000031
310
0000006662782F45374635344235342D363743322D343832342D383044432D4334454645303536354442422F636F72652E786D6C8D515B6EC32010BC0AE22B55850D2E386E848994D7097A0117488A1283C5A3CAF10BB523B57FF961D1ECCCECC0F2ED7DBC816FED8371B687A4C210682B9D32F6D2C314CFA883602BB8772E
310
FEA141608751F7B0C050F08B77695A20E96CD43666D43AA5177008414708E42D5F7A18E4971E876A483133C2B59A06791D2EBA22556E679EE021FA1C00CC43CA09C5717D6274C7286AD7FB06D1AEA1A8C3873DDAD3E3E98859CB0EBB1DAF67A1E02919B5C88DCA71CCD968FFAC49110B1ECDF8882FBD1EA256503418BF2342
310
106E3E08DD60B6A1EC15771B8C795DE8FF4469524F8A92B1F1AD59E2CEB20005E1F5DC105CB9F4797B84D1F7C9F908CABC55D0F2050A5C61CC1AD2F27A26E6E767C7962E8E213A9FBF7775FDCC5CC266DB960A5E970DE5F2BBBE5CCB36C50F504B0304140006080800B670623B1B8617914E01000033030000300000006662
310
782F45374635344235342D363743322D343832342D383044432D4334454645303536354442422F636E782E786D6CD593C16EC32010447F0571AD6CE3D489D20813A9877E410FBD62D82434182CC055F3F75D1292E692438FBD206B7698593D61BEFD1E2DF982108D773D6D6B460938E5B571FB9ECE6957AD29D90A1EBC4F77
310
364A9C1CA1A759A682EF839FA72269D8C9D92654AD71C72206887E0E0A22CAF926B15E498B01E0AA19451807D01A34B919F16B070157417138917400F2F6FA41FCF0092A45DEE414C19BDC21783E4BD39D891265658C3D8DEA00A3ACE59CBC8678ACB54CB26EEB6BD7839D7E9348BE70AD9C8321B9BCA7F9A4A26C542347DE
310
E050F09802D22BA6749A800A394DD62899107273365E3C82CFC6A55557BC06C10774B7ABE7AEC3B0F34CF06446280E154026D0542C187BA9DAB6628BF7B6DBB0E5A65B3EB1F58631DE64BBE083F7B65CC218087E22CABB042E51D1F2268F1FE12B3EA24D40D63E9CFE00120194D60B9D5BC67FE6D39CDF37E20AF817881F50
310
4B0304140006080800B670623B29652116630500003C100000340000006662782F45374635344235342D363743322D343832342D383044432D4334454645303536354442422F6F626A656374732E786D6CAD575D739B3814FD2B0CFB0C989834C90EA1639B24E3E9A6EDD4D3CE3E64C623834CD8006224913AFDF57B040203
310
B65BEF871F0C12D2FD3CF7E8CA7FBFCB33E3957291B2E2D674ED8969D02262715A24B76625B7D6B569BC0F7CCE98EC2D338D82E4F4D654D366E0279C55A59E8AE99654991CCDDECFFF3444440B6A1A514684B83545F44C7362934AB2988A173B2692D8C97667BB76B3702836E1A47C1E092D09A78584A5982F20C5688C7287
310
C389E904BEA3BE07BEFAD7ABA6A75739B53F43FD69212429A20365233153D70BEF2E2E6FAC4BCF9B5ADEBB0BD79ADFCF43CBBD9A4E16EF168B9BD9DD0D140BC921495BC2E9D60C1E101B9E46BED37CEA2CD6861F3329624541A3DA7F7858DBAC25C6B4A4458C3CA654405BCFEBC970E8AAD8F43E4FD558ABEC4F9FE7557F47
310
4F506B7BFBEC5BCA367FC105710E2AB8A00A554D7CB4A30DFE26FBA86D18CBF4B75418399194A72433B274C3097F33032C554B027F2046A1932B842B0FCCC0DDCBEBDB8AD2F835768F59B9ADB24C41D30C6A64AF817F2A456D59FA83F2E3DA60137255A585BCD60EC9B7929AC18DEFD49381AF1ED30BFDB109A4B1CD488294
310
C3CDE6EBC8D185AABD6568061FEE37BB95AAC7E3CA4BCE4ACAA5820FA0D526AE7DAA2869B5EE5999531BE0CC20E6FBA07C41E43FA27CF7A6206F3CDD793B4F6B919C1462CB788EDCD893FA674CDA17AB7B3B7C019F8D561FAEE966FED562DFE98C1D12C6A9FC015C2A35D7FF3D7FC398F591DA4B5FE0BFA2C0189FEA50AE22
310
92817A1ED3020951A03432862970F976B33383259812CC8E5D240BBA801CBCF8CE2BBEE3BF910DB6AAD5F79E05123AE2DB33981FB1ACCB02B69D00CB014FD68AB573A7627EF9BFD4CC2C5C7D58557C4B22FAA88925A4DBB44825CECE3D78FB060D1231F0E885BE7D673C86A3874958F593906B5502D1563157814FDAC3420D
310
F69A070A22EC4B98E23CFF171A1E5311D12C23056555ABA53B8614563B92D17D02AAB009E8F46284624E5F53D5490C560CCCC2591FF1B45421EB0EBD8EA7ED13BE7C5D7E0428CD60FEF60779EB13E6664FF711CB185F6FDED60D139A001FF60CD1FD6D086F1D51474901E26B2CB794A343BC8ED3EDB612E0DD2351FCB65CF4
310
33D511C9E14B5B40ADC6A6263DB0336A8F700DDF56271A024E70B0B3629DE21847591E55DED73D56206AB927E46FAABC5C939C55853C274C93D69FD6FA4E78BF8B11DF898C9ECD60553FAD39283BA6F18984AA23E8884F83F45C5F5F859797B31B2B9C84A1E5B9DE9D35BFF25C6B76152E422F9C5DCC3D847F5801ED09D5AF
310
41441327A25FF15487F9EB725FB666F048A4701E9A827292E6F97569A32DF61DEC01C0BB8DCBBCCC684E0B49147C1FD54BF685A0AB18C868E6973949E819523E3DAC463660E68C7D9F55A9D1EFA3BD7A76A16AE1A810F95CE59B82A4D968A376DC2E8B44BBDD86B27B368CDE0ED548C7137DA860591A83706223A12CA712B4
310
7306DBF39C0A20A6DF95C7FAF670C6EED7A61F946493D1D6926782963813403548A78AE470DEF80D2D9CEAA26E4D1C76F60BFE74219A06527D6B82DF641A51616F703CAAC6A7160E08A00BEB4810A0274592A1B36E3675E36E978A0DE80727A0D6DF2D39A75BD27E0D8837276589537B40ABB56D5A41F48F1C6FCD3188C4EB
310
A6929D2FFB89CE995A4D00AE813BDD032DC48B56BD437DFDDC2DD7AED70C2272D63DE9A72068A45A92F0A4BE17A8A06B9366E16707AD80B1FC649459952097E74BB23805982B55E0401150A165964402AA8BDF9F3E7386BB686EDCA780C0D382E5392BF460A6EFB2C6EA1937D3F809B440D5F5435C4C5CF7A9EEFAF54564BD
310
2182DA24162F98680B4E7930C21A0079709CEAEB99A372305ABE0C0D7D6078105A83F6A0296DAEE1068A47DD1C55A9F4C9B2FC69E3EFD44B81028E963DF81B504B0304140006080000B670623B000000000000000000000000350000006662782F45374635344235342D363743322D343832342D383044432D433445464530
310
3536354442422F76657274696365732E62696E504B0304140006080800B670623BF270F1330600000004000000360000006662782F45374635344235342D363743322D343832342D383044432D4334454645303536354442422F747269616E676C65732E62696E636660600000504B0304140006080000B670623B00000000
310
0000000000000000370000006662782F45374635344235342D363743322D343832342D383044432D4334454645303536354442422F617474726962757465732E62696E504B0304140006080800B670623B08DA0BD19000000041010000360000006662782F45374635344235342D363743322D343832342D383044432D4334
310
454645303536354442422F6469726563746F72792E786D6C858F410AC3201045AF22B36F53E9A60B35CBEEBAE80D244E44489C6234F4F835464A48035D0DF398FF9F8AF63D0E6CC63039F212F8F9020C7D47C6792B21C5FE7403D62A1188E2E60C98D7234A5830286103A55745067B9D86B8A3CF9C7F90C11DE607FB144396
310
D7B6A82D282E9A152AD114D5EF2CB866EEE831B8EEA07A7BB5A8D7D61A2BAAEB7FD5F70921FF497D00504B0304140006080800B670623B6378F24DFF000000A00100003B0000006662782F45374635344235342D363743322D343832342D383044432D4334454645303536354442422F7265736F75726365732F636F72652E
310
786D6C8D504B6E833010BD0A9A6D65B0094E42641C85B639412F6099496225D8C89FAAC7AF09546A77DDCC8CDE47F3F4C4F16B7C149FE88371B603565228D06A37187BED20C50BD9437194C23B177FC9A0B06AC40E6618A4B87A97A615D2CE46B431A3D60DB8822A048C50E8473E3A08FA86A32A558A5911EEE5A4F45D5DB1
310
6465A6B34E8A107D0E502C4FE609D26370C96B0CA25A58295232C3AA3143FE692E063D485EF7F5AEE71BD2D2F39634AFFC44DAF7DD9E9CCE6F9CD25DCBFA762BAAD92C4534E34F46ED51451C40D694B6843142EB0FD61C283F34FC85EE0F948A6A96FF31A569F8A729191B37F51A77B105902C0779125254735F793DCBCC7B
310
EE567E03504B010214000A0000080000B670623B3DEE336E79000000790000001B00000000000000000000000000000000006175746F6465736B2D64657369676E2D7061636B6167652E786D6C504B01021400140006080800B670623BD486FD9CA0000000F40000001300000000000000000000000000B20000005B436F6E
310
74656E745F54797065735D2E786D6C504B01021400140006080800B670623BBC1638F5EC0000007C010000080000000000000000000000000083010000636F72652E786D6C504B01021400140006080800B670623B55019EA25F0000007C000000070000000000000000000000000095020000636E782E786D6C504B010214
310
00140006080800B670623B3586FFB671010000D40300000C00000000000000000000000000190300006662782F636F72652E786D6C504B01021400140006080800B670623B4220A0FF7D0000009D0000000B00000000000000000000000000B40400006662782F636E782E786D6C504B01021400140006080800B670623B2F
310
A3FEDE290100001202000031000000000000000000000000005A0500006662782F45374635344235342D363743322D343832342D383044432D4334454645303536354442422F636F72652E786D6C504B01021400140006080800B670623B1B8617914E010000330300003000000000000000000000000000D2060000666278
310
2F45374635344235342D363743322D343832342D383044432D4334454645303536354442422F636E782E786D6C504B01021400140006080800B670623B29652116630500003C10000034000000000000000000000000006E0800006662782F45374635344235342D363743322D343832342D383044432D4334454645303536
310
354442422F6F626A656374732E786D6C504B01021400140006080000B670623B0000000000000000000000003500000000000000000000000000230E00006662782F45374635344235342D363743322D343832342D383044432D4334454645303536354442422F76657274696365732E62696E504B01021400140006080800
310
B670623BF270F13306000000040000003600000000000000000000000000760E00006662782F45374635344235342D363743322D343832342D383044432D4334454645303536354442422F747269616E676C65732E62696E504B01021400140006080000B670623B0000000000000000000000003700000000000000000000
310
000000D00E00006662782F45374635344235342D363743322D343832342D383044432D4334454645303536354442422F617474726962757465732E62696E504B01021400140006080800B670623B08DA0BD190000000410100003600000000000000000000000000250F00006662782F45374635344235342D363743322D34
310
3832342D383044432D4334454645303536354442422F6469726563746F72792E786D6C504B01021400140006080800B670623B6378F24DFF000000A00100003B00000000000000000000000000091000006662782F45374635344235342D363743322D343832342D383044432D4334454645303536354442422F7265736F75
310
726365732F636F72652E786D6C504B0506000000000E000E0080040000611100000000
  0
XRECORD
  5
112
102
{ACAD_REACTORS
330
110
102
}
330
110
100
AcDbXrecord
280
     1
270
     1
271
     1
  0
XRECORD
  5
111
102
{ACAD_REACTORS
330
110
102
}
330
110
100
AcDbXrecord
280
     1
270
     1
271
     1
  0
XRECORD
  5
18A
102
{ACAD_REACTORS
330
110
102
}
330
110
100
AcDbXrecord
280
     1
 70
     0
 90
1778669749
  1
9BF507EE-FAF7-4A99-A33D-4EE51894BC40
310
504B03040A0000080000B670623B3DEE336E79000000790000001B0000006175746F6465736B2D64657369676E2D7061636B6167652E786D6C3C3F786D6C2076657273696F6E3D22312E302220656E636F64696E673D227574662D3822203F3E3C666F726D6174733E3C666F726D61743E687474703A2F2F736368656D612E
310
6175746F6465736B2E636F6D2F64657369676E2D7061636B6167652F323030393C2F666F726D61743E3C2F666F726D6174733E504B0304140006080800B670623BD486FD9CA0000000F4000000130000005B436F6E74656E745F54797065735D2E786D6C7D8EC10E82300C865F65E91D8A1E8C310C0EEA1BF002731658846E
310
D98AC1B77784ABF1D8FE5FBFBF75BBCE937A534CCEB38643598122B6FEE978D0B0485F9C41B54DDD7D022595594E1A469170414C76A4D9A4D207E29CF43ECE46F218070CC6BECC4078ACAA135ACF422C856C0E68EA1BF5669944DDD7BCDE7B1F8E415D77AECB980613C2E4AC91FC167A2B244592486606FC29C8FD7F045B9A
310
EF7053A7E60B504B0304140006080800B670623BCA089DFFEC0000007C01000008000000636F72652E786D6C8D90416E83301045AF62CDB632D8402020E32882F604BD80653BC44AB011B6AB1EBF262152BBEB6A467FFE9B197D76FA9EEFE84BAFDE38DB03CD08206DA553C64E3DC470C1474027CE56E7C22F1B202B66DDC3
310
260367D3EAE2B24BD2D9A06D48AA754AEFA2F05E0740F29E9A1EBCBCEA59642286E4F0B76C11F226269DD15797E0188D42CF2346A57DE662F40ABCAEC77628C6120F654571D50C04B7F5B9C1E3997CD4F550BE3745C3F20DE62C98F9755FAE5A04AD801784B498524C8A4F5A75E4D055873772EC0861F966FF03C545FD138A
310
C686B2D8DF7D621E384D8F3C069CE55B16A93C824A75CB8DFF00504B0304140006080800B670623B55019EA25F0000007C00000007000000636E782E786D6C4DCB3B0E80201045D1AD90E915ED2CF8AC45050C11660C8261F98AB1B07AC9C97D42D718D865D3E909258CFD00CCE24AC6E326A164D74DC0B4128928FF326038
310
472BA13128B1252AC747C6BAB984FC68F0B87FE8960A5C09FE86CFB69FBA01504B0304140006080800B670623B68FC0B7272010000D40300000C0000006662782F636F72652E786D6CC5535B6E833010BC8AE5DF0A6C1E8124328E22D29EA01770C0A128602363A31CBFCB234A53A555FA553EC09AD9F5CE8C31DB5DDA060D
310
D2F4B556190E7C8A9154852E6B5565D8D993B7C668C799D1DA7E29C3488956667884316795D1AE5BA0422B2B950554E9522EA0E87B69312A1A5864B82F3E642B7CE12C54F467BF13C55954D20F7CA0A18EB3DE1A1080E621E31BF3D3F1C2C88C73E65C5D2E6C5DC2B4FA544B8379921C36797888BC3C8A032F4E73EA6D927D
310
EA1DF6F42D49F2E8350D5346C666CE6CDD5ED515460A2B4BCC434A375E1078347C0FE22D5D6DE3D50B5D6F2965642CBF6B725DF96493AB958DC245EEDCD6631E809089F8E61622B2A81703E8219C913144F84C09DF070D8140C8561C9BAB8F3340832CAC363130A576376A108D933095FA747AD0CF0B46E64E983A6D0EAE1F
310
CE089F9EF1FB8E70D44255604258581E9D1D75B259C3125A278D37D80B52DAB4A279CEC62F0EFF44DDC43F9454E8469BFF5244960322CBEF41C6FBC83F01504B0304140006080800B670623B0F71DDB67E0000009D0000000B0000006662782F636E782E786D6C4DCCD10A83201886E15B91FFDCA54DB73F502386BB8F5816
310
32D3703976F9ABD1C18E3E78F87855FB990379BBFCF2296AE02706C4C5471A7C9C349475A408A4352AA7B4FEDD80C47E761A7606A3A69CCA72D0E0C6BE8475D3E0E3F3409428EA6B27A84079A782899AA2EC1A7AE3ECCC2FD858CB2D544655BFD2B67BD87C01504B0304140006080800B670623BE134B4FB28010000120200
310
00310000006662782F38353834323741342D343835462D343034322D383541392D4331303331363839454531452F636F72652E786D6C8D515B6EC32010BC0AE22B55850D0EA424C24451959EA0172086A42831583CAA1CBF503B52FB971F16CDCECC0EACD8DFC71BF836215AEF7A481A0C817183D7D65D7A98D3197108F652
310
04EFD31F1A044E8DA6871586525C82CFD3020DDE25E352419DD76601558C264130DCCAA58771F832A36A544E8511AFCDA486ABBA988634A55D7852C4144A00300FA927949C71DABD1D28A29C7D208A6987383B6CD13BC16BB2E1DBE3911C453B0BA5C8D9EA456E758963CFD684674DAA588A64C747FC2118958C86B2C3788B
310
0841B8FB247487D98EB257CC77188BB6D2FF89F2A49F1465EBD2BA5BE2CEB2082511EDDC9042FB7CBA3DC298FBE4430275DE2A9AE1054ADC60CC08E3A29D89E5F9C5714317C7987C28DFBBBA9E0A97B0D97643A568EB864AF95D5FA9759BF207504B0304140006080800B670623B1B8617914E010000330300003000000066
310
62782F38353834323741342D343835462D343034322D383541392D4331303331363839454531452F636E782E786D6CD593C16EC32010447F0571AD6CE3D489D20813A9877E410FBD62D82434182CC055F3F75D1292E692438FBD206B7698593D61BEFD1E2DF982108D773D6D6B460938E5B571FB9ECE6957AD29D90A1EBC4F
310
77364A9C1CA1A759A682EF839FA72269D8C9D92654AD71C72206887E0E0A22CAF926B15E498B01E0AA19451807D01A34B919F16B070157417138917400F2F6FA41FCF0092A45DEE414C19BDC21783E4BD39D891265658C3D8DEA00A3ACE59CBC8678ACB54CB26EEB6BD7839D7E9348BE70AD9C8321B9BCA7F9A4A26C542347
310
DEE050F09802D22BA6749A800A394DD62899107273365E3C82CFC6A55557BC06C10774B7ABE7AEC3B0F34CF06446280E154026D0542C187BA9DAB6628BF7B6DBB0E5A65B3EB1F58631DE64BBE083F7B65CC218087E22CABB042E51D1F2268F1FE12B3EA24D40D63E9CFE00120194D60B9D5BC67FE6D39CDF37E20AF817881F
310
504B0304140006080800B670623B5933D422630500003B100000340000006662782F38353834323741342D343835462D343034322D383541392D4331303331363839454531452F6F626A656374732E786D6CAD575B6FA33814FE2B887D0642934E9B156594264D158D3A534DD4D13E548A0C38942D60649B4EBABF7E3F8321
310
40924EF6928780CDF1B97EE762EFF32E4B8D37CA45C2F21BD3B547A641F39045491EDF98A5DC5AD7A6F1D9F73863B243661A39C9E88DA9B64DDF8B392B0BBD15D12D295339D85DDEFE618890E6D434C2940871638AF08566C426A5641115AF764424B1E3EDCE76ED9AB0CF36E6A47819302D08A7B984A6D8CFC1C5A89572FB
310
CB91E9F89EA3BEFB9EFAD754E3D3544E654F5F7E920B49F2F040D880CDD89D2CEE2E2EA7D6E56432B6269F2E5CEB7679BBB0DCABF168FE693E9FCEEEA6102C240727AD09A75BD3BF876F78127A4EFDA9D5582B7E4CA590E5390D2BFB6161A5B3E618D182E611E2985001691DAB47FDA5AB7CD3F93C566B2DB2BB7D9E55DD13
310
1D468DEECDB3AB290BFE8409E21C54704115AA6AFF68436BFC8DF65E0B184BF5B74418199194272435D224E084BF9B3E481589EFF5D828747285706581E9BB7B7E5D5D911ABFC6EE312DB7659A2A689A7E85EC0DF04FA5A8344BFEA2FCB834E8845895492EAFB541F2BDA0A63FF59C6AD3F7D4637CA13FD68E34B629891172
310
98597F1D183A57B9B75A98FE9765B05BAB7C3C2EBCE0ACA05C2AF8005A4DE09AA7F29216EB9E15397500C6F47CBE77CA7778FE2BD277AF0AE2C693DD6437D1522427B9D8329E2136F6A8FA19A3E6C56ADF0E5F50CF06D48734EDCEBF22F69C56D97EC138153F804B85E6FABFC7AFEFB32E523BE1F3BD372418E363EDCA7548
310
52949E8724474014288D94610BB57C1BEC4C7F854A89CA8E5324F55B871CBC78CE1BBEE3BFE68D6A5589EF3C730474506FCFA8FCF0659516D0ED04580EEA6425581B77CAE797FF4BCECC16EB2FEB926F49481F746159D06D922712BD730FDEAE42BD40F42C7AA5EF3F198F60E86110D6DD20645A9480B795CF95E3E3A659A8
310
C55E724F408873315335CFFB8584874484344D494E59D94869DB90C26A5B64F49C802CAC1D3ABE18A098D3B7444D123D8A9E5AE8F5214F0AE5B2B6E9B575DA3E61CBD3EA2B4009FA940524DD1305FB6A1FB294F14DF0BEA90BA109ECE1481FDC3FFAE8D60E75141700BE82725371B4873751B2DD960265F788137FACE6DD40
310
B575E4F0A5C99F46629D92131467A41EE11ABD8D4CCC039CA0AFB37C93A08B232B8F0AEFCA1E0A1015DF13FC83322B362463652ECF71D3A8B1A7D1BE65DE1D62C44F22C317D35F574FEB16153BA2D13E543D10A80E74C4A65E78A6B7CBCBD1D5DD9DB59C2DAFACC96C3AB566E3F1C29ADCDD5DBAD7D3C9ED7C822ED74F80A6
310
41755310DE4443F44A9E68373FADF6596BFA0F440AE7BECE2727AE9F4F2B1B53B1E7E00CF0DD1E5C65454A339A4BA2D0FBA05ED2EF0443458F47BDBFCA484CCFE0F2ED7E3DD0013B679C7B5499467F0ECEEADDB9CA85A34CE44B99053949D2C1416DB85DE4B136BB7165FBAC0B7AB3542BED4F8CA182A549847A1319316519
310
95A83A67147B9E5101C47487F2485F1ECE38FD568F839204296D3479219888530154036E6528FBFBC66F98E0D4107563A2D7D9AFF8D389681A08F58D89F22693900A3B407754734FC51C10C010D6D640809EE4718AC1BA3ED4AEDB53CA37283F68805A7E4B72CEB0A4EDEAD5DD8C14059A76AFAA56BA6901E13F32BC51C720
310
12AF41295B5BF61BAD3195181FB506E6B40F4C10AF5AF40EF9F5B159AE5DD1F43C72D635E94310D45C2D49785C5D0B94D3B54AB3C5A38349C0587D338AB48C11CBF339599C02CCA54A70A008A8D03C0B2201D5F9EFCF8F9CE12A9A19CB0410789EB32C63B95ECCF455D658BFE0621A3DA32C5075FB101723D77DAE867E7D0F
310
D90444509B44E2151B4DC2290B065803200FBAA9BE9D392A0603F2D5C2D00D6302A615680F66D2FA166E2079D4C551A54AB758161FCEFD4E450A14704CECFEDF504B0304140006080000B670623B000000000000000000000000350000006662782F38353834323741342D343835462D343034322D383541392D4331303331
310
363839454531452F76657274696365732E62696E504B0304140006080800B670623BF270F1330600000004000000360000006662782F38353834323741342D343835462D343034322D383541392D4331303331363839454531452F747269616E676C65732E62696E636660600000504B0304140006080000B670623B000000
310
000000000000000000370000006662782F38353834323741342D343835462D343034322D383541392D4331303331363839454531452F617474726962757465732E62696E504B0304140006080800B670623B08DA0BD19000000041010000360000006662782F38353834323741342D343835462D343034322D383541392D43
310
31303331363839454531452F6469726563746F72792E786D6C858F410AC3201045AF22B36F53E9A60B35CBEEBAE80D244E44489C6234F4F835464A48035D0DF398FF9F8AF63D0E6CC63039F212F8F9020C7D47C6792B21C5FE7403D62A1188E2E60C98D7234A5830286103A55745067B9D86B8A3CF9C7F90C11DE607FB1443
310
96D7B6A82D282E9A152AD114D5EF2CB866EEE831B8EEA07A7BB5A8D7D61A2BAAEB7FD5F70921FF497D00504B0304140006080800B670623BD9A3B367FE000000A00100003B0000006662782F38353834323741342D343835462D343034322D383541392D4331303331363839454531452F7265736F75726365732F636F7265
310
2E786D6C8D504B6E833010BD0A9A6D65B01D0201194711694FD00B586642AD043BF2A7EAF16B122AB5BB6E6646EFA3797AE2F8B5DC8A4FF4C1383B002B291468B59B8C9D0748F1420E501CA5F0CEC55F3228AC5A708015062966EFD27D83B4B3116DCCA875136EA00A012314FA968F0182FEC045952AC5AC08D7F2AEF455CD
310
58B232D3592745883E07289E4FD609D26370C96B0CA27AB252A464A64D63A6FCD35C0C7A904D73EE467EE664DCD58CD4ED4849D79C5A723ED1B7A61977AF2D6F45B59AA58866F9C9A83DAA8813484E6947182394BFB3BAA7FBBEDEBFD0434FA9A856F91F53BA4FFF342563E38E6F719FB60092E5200F428A6AED2BAF479979
310
AFDDCA6F504B010214000A0000080000B670623B3DEE336E79000000790000001B00000000000000000000000000000000006175746F6465736B2D64657369676E2D7061636B6167652E786D6C504B01021400140006080800B670623BD486FD9CA0000000F40000001300000000000000000000000000B20000005B436F6E
310
74656E745F54797065735D2E786D6C504B01021400140006080800B670623BCA089DFFEC0000007C010000080000000000000000000000000083010000636F72652E786D6C504B01021400140006080800B670623B55019EA25F0000007C000000070000000000000000000000000095020000636E782E786D6C504B010214
310
00140006080800B670623B68FC0B7272010000D40300000C00000000000000000000000000190300006662782F636F72652E786D6C504B01021400140006080800B670623B0F71DDB67E0000009D0000000B00000000000000000000000000B50400006662782F636E782E786D6C504B01021400140006080800B670623BE1
310
34B4FB280100001202000031000000000000000000000000005C0500006662782F38353834323741342D343835462D343034322D383541392D4331303331363839454531452F636F72652E786D6C504B01021400140006080800B670623B1B8617914E010000330300003000000000000000000000000000D3060000666278
310
2F38353834323741342D343835462D343034322D383541392D4331303331363839454531452F636E782E786D6C504B01021400140006080800B670623B5933D422630500003B10000034000000000000000000000000006F0800006662782F38353834323741342D343835462D343034322D383541392D4331303331363839
310
454531452F6F626A656374732E786D6C504B01021400140006080000B670623B0000000000000000000000003500000000000000000000000000240E00006662782F38353834323741342D343835462D343034322D383541392D4331303331363839454531452F76657274696365732E62696E504B01021400140006080800
310
B670623BF270F13306000000040000003600000000000000000000000000770E00006662782F38353834323741342D343835462D343034322D383541392D4331303331363839454531452F747269616E676C65732E62696E504B01021400140006080000B670623B0000000000000000000000003700000000000000000000
310
000000D10E00006662782F38353834323741342D343835462D343034322D383541392D4331303331363839454531452F617474726962757465732E62696E504B01021400140006080800B670623B08DA0BD190000000410100003600000000000000000000000000260F00006662782F38353834323741342D343835462D34
310
3034322D383541392D4331303331363839454531452F6469726563746F72792E786D6C504B01021400140006080800B670623BD9A3B367FE000000A00100003B000000000000000000000000000A1000006662782F38353834323741342D343835462D343034322D383541392D4331303331363839454531452F7265736F75
310
726365732F636F72652E786D6C504B0506000000000E000E0080040000611100000000
  0
XRECORD
  5
113
102
{ACAD_REACTORS
330
110
102
}
330
110
100
AcDbXrecord
280
     1
270
     1
271
     1
  0
XRECORD
  5
114
102
{ACAD_REACTORS
330
110
102
}
330
110
100
AcDbXrecord
280
     1
270
     1
271
     1
  0
CELLSTYLEMAP
  5
503
102
{ACAD_REACTORS
330
104
102
}
330
104
100
AcDbCellStyleMap
 90
        3
300
CELLSTYLE
  1
TABLEFORMAT_BEGIN
 90
        5
170
     1
 91
        0
 92
    32768
 62
   257
 93
        1
300
CONTENTFORMAT
  1
CONTENTFORMAT_BEGIN
 90
        0
 91
        0
 92
      512
 93
        0
300

 40
0.0
140
1.0
 94
        5
 62
     0
340
11
144
0.25
309
CONTENTFORMAT_END
171
     1
301
MARGIN
  1
CELLMARGIN_BEGIN
 40
0.06
 40
0.06
 40
0.06
 40
0.06
 40
0.18
 40
0.18
309
CELLMARGIN_END
 94
        6
 95
        1
302
GRIDFORMAT
  1
GRIDFORMAT_BEGIN
 90
        0
 91
        1
 62
     0
 92
       -2
340
0
 93
        0
 40
0.045
309
GRIDFORMAT_END
 95
        2
302
GRIDFORMAT
  1
GRIDFORMAT_BEGIN
 90
        0
 91
        1
 62
     0
 92
       -2
340
0
 93
        0
 40
0.045
309
GRIDFORMAT_END
 95
        4
302
GRIDFORMAT
  1
GRIDFORMAT_BEGIN
 90
        0
 91
        1
 62
     0
 92
       -2
340
0
 93
        0
 40
0.045
309
GRIDFORMAT_END
 95
        8
302
GRIDFORMAT
  1
GRIDFORMAT_BEGIN
 90
        0
 91
        1
 62
     0
 92
       -2
340
0
 93
        0
 40
0.045
309
GRIDFORMAT_END
 95
       16
302
GRIDFORMAT
  1
GRIDFORMAT_BEGIN
 90
        0
 91
        1
 62
     0
 92
       -2
340
0
 93
        0
 40
0.045
309
GRIDFORMAT_END
 95
       32
302
GRIDFORMAT
  1
GRIDFORMAT_BEGIN
 90
        0
 91
        1
 62
     0
 92
       -2
340
0
 93
        0
 40
0.045
309
GRIDFORMAT_END
309
TABLEFORMAT_END
  1
CELLSTYLE_BEGIN
 90
        1
 91
        1
300
_TITLE
309
CELLSTYLE_END
300
CELLSTYLE
  1
TABLEFORMAT_BEGIN
 90
        5
170
     1
 91
        0
 92
        0
 62
   257
 93
        1
300
CONTENTFORMAT
  1
CONTENTFORMAT_BEGIN
 90
        0
 91
        0
 92
      512
 93
        0
300

 40
0.0
140
1.0
 94
        5
 62
     0
340
11
144
0.18
309
CONTENTFORMAT_END
171
     1
301
MARGIN
  1
CELLMARGIN_BEGIN
 40
0.06
 40
0.06
 40
0.06
 40
0.06
 40
0.18
 40
0.18
309
CELLMARGIN_END
 94
        6
 95
        1
302
GRIDFORMAT
  1
GRIDFORMAT_BEGIN
 90
        0
 91
        1
 62
     0
 92
       -2
340
0
 93
        0
 40
0.045
309
GRIDFORMAT_END
 95
        2
302
GRIDFORMAT
  1
GRIDFORMAT_BEGIN
 90
        0
 91
        1
 62
     0
 92
       -2
340
0
 93
        0
 40
0.045
309
GRIDFORMAT_END
 95
        4
302
GRIDFORMAT
  1
GRIDFORMAT_BEGIN
 90
        0
 91
        1
 62
     0
 92
       -2
340
0
 93
        0
 40
0.045
309
GRIDFORMAT_END
 95
        8
302
GRIDFORMAT
  1
GRIDFORMAT_BEGIN
 90
        0
 91
        1
 62
     0
 92
       -2
340
0
 93
        0
 40
0.045
309
GRIDFORMAT_END
 95
       16
302
GRIDFORMAT
  1
GRIDFORMAT_BEGIN
 90
        0
 91
        1
 62
     0
 92
       -2
340
0
 93
        0
 40
0.045
309
GRIDFORMAT_END
 95
       32
302
GRIDFORMAT
  1
GRIDFORMAT_BEGIN
 90
        0
 91
        1
 62
     0
 92
       -2
340
0
 93
        0
 40
0.045
309
GRIDFORMAT_END
309
TABLEFORMAT_END
  1
CELLSTYLE_BEGIN
 90
        2
 91
        1
300
_HEADER
309
CELLSTYLE_END
300
CELLSTYLE
  1
TABLEFORMAT_BEGIN
 90
        5
170
     1
 91
        0
 92
        0
 62
   257
 93
        1
300
CONTENTFORMAT
  1
CONTENTFORMAT_BEGIN
 90
        0
 91
        0
 92
      512
 93
        0
300

 40
0.0
140
1.0
 94
        2
 62
     0
340
11
144
0.18
309
CONTENTFORMAT_END
171
     1
301
MARGIN
  1
CELLMARGIN_BEGIN
 40
0.06
 40
0.06
 40
0.06
 40
0.06
 40
0.18
 40
0.18
309
CELLMARGIN_END
 94
        6
 95
        1
302
GRIDFORMAT
  1
GRIDFORMAT_BEGIN
 90
        0
 91
        1
 62
     0
 92
       -2
340
0
 93
        0
 40
0.045
309
GRIDFORMAT_END
 95
        2
302
GRIDFORMAT
  1
GRIDFORMAT_BEGIN
 90
        0
 91
        1
 62
     0
 92
       -2
340
0
 93
        0
 40
0.045
309
GRIDFORMAT_END
 95
        4
302
GRIDFORMAT
  1
GRIDFORMAT_BEGIN
 90
        0
 91
        1
 62
     0
 92
       -2
340
0
 93
        0
 40
0.045
309
GRIDFORMAT_END
 95
        8
302
GRIDFORMAT
  1
GRIDFORMAT_BEGIN
 90
        0
 91
        1
 62
     0
 92
       -2
340
0
 93
        0
 40
0.045
309
GRIDFORMAT_END
 95
       16
302
GRIDFORMAT
  1
GRIDFORMAT_BEGIN
 90
        0
 91
        1
 62
     0
 92
       -2
340
0
 93
        0
 40
0.045
309
GRIDFORMAT_END
 95
       32
302
GRIDFORMAT
  1
GRIDFORMAT_BEGIN
 90
        0
 91
        1
 62
     0
 92
       -2
340
0
 93
        0
 40
0.045
309
GRIDFORMAT_END
309
TABLEFORMAT_END
  1
CELLSTYLE_BEGIN
 90
        3
 91
        2
300
_DATA
309
CELLSTYLE_END
  0
ENDSEC
  0
SECTION
  2
ACDSDATA
 70
     2
 71
     2
  0
ACDSSCHEMA
 90
        0
  1
AcDb_Thumbnail_Schema
  2
AcDbDs::ID
280
    10
 91
        8
  2
Thumbnail_Data
280
    15
 91
        0
101
ACDSRECORD
 95
        0
 90
        1
  2
AcDbDs::TreatedAsObjectData
280
     1
291
     1
101
ACDSRECORD
 95
        0
 90
        2
  2
AcDbDs::Legacy
280
     1
291
     1
101
ACDSRECORD
  1
AcDbDs::ID
 90
        3
  2
AcDs:Indexable
280
     1
291
     1
101
ACDSRECORD
  1
AcDbDs::ID
 90
        4
  2
AcDbDs::HandleAttribute
280
     7
282
     1
  0
ACDSSCHEMA
 90
        1
  1
AcDbDs::TreatedAsObjectDataSchema
  2
AcDbDs::TreatedAsObjectData
280
     1
 91
        0
  0
ACDSSCHEMA
 90
        2
  1
AcDbDs::LegacySchema
  2
AcDbDs::Legacy
280
     1
 91
        0
  0
ACDSSCHEMA
 90
        3
  1
AcDbDs::IndexedPropertySchema
  2
AcDs:Indexable
280
     1
 91
        0
  0
ACDSSCHEMA
 90
        4
  1
AcDbDs::HandleAttributeSchema
  2
AcDbDs::HandleAttribute
280
     7
 91
        1
284
     1
  0
ACDSRECORD
 90
        0
  2
AcDbDs::ID
280
    10
320
22
  2
Thumbnail_Data
280
    15
 94
      889
310
89504E470D0A1A0A0000000D49484452000001000000007508030000009634CF9200000300504C5445212830000000C8C8C80000000000000000000000000000000000000000000000000000330000660000990000CC0000FF0033000033330033660033990033CC0033FF0066000066330066660066990066CC0066FF0099
310
000099330099660099990099CC0099FF00CC0000CC3300CC6600CC9900CCCC00CCFF00FF0000FF3300FF6600FF9900FFCC00FFFF3300003300333300663300993300CC3300FF3333003333333333663333993333CC3333FF3366003366333366663366993366CC3366FF3399003399333399663399993399CC3399FF33CC00
310
33CC3333CC6633CC9933CCCC33CCFF33FF0033FF3333FF6633FF9933FFCC33FFFF6600006600336600666600996600CC6600FF6633006633336633666633996633CC6633FF6666006666336666666666996666CC6666FF6699006699336699666699996699CC6699FF66CC0066CC3366CC6666CC9966CCCC66CCFF66FF0066
310
FF3366FF6666FF9966FFCC66FFFF9900009900339900669900999900CC9900FF9933009933339933669933999933CC9933FF9966009966339966669966999966CC9966FF9999009999339999669999999999CC9999FF99CC0099CC3399CC6699CC9999CCCC99CCFF99FF0099FF3399FF6699FF9999FFCC99FFFFCC0000CC00
310
33CC0066CC0099CC00CCCC00FFCC3300CC3333CC3366CC3399CC33CCCC33FFCC6600CC6633CC6666CC6699CC66CCCC66FFCC9900CC9933CC9966CC9999CC99CCCC99FFCCCC00CCCC33CCCC66CCCC99CCCCCCCCCCFFCCFF00CCFF33CCFF66CCFF99CCFFCCCCFFFFFF0000FF0033FF0066FF0099FF00CCFF00FFFF3300FF3333
310
FF3366FF3399FF33CCFF33FFFF6600FF6633FF6666FF6699FF66CCFF66FFFF9900FF9933FF9966FF9999FF99CCFF99FFFFCC00FFCC33FFCC66FFCC99FFCCCCFFCCFFFFFF00FFFF33FFFF66FFFF99FFFFCCFFFFFF0000000D0D0D1A1A1A2828283535354343435050505D5D5D6B6B6B787878868686939393A1A1A1AEAEAEBB
310
BBBBC9C9C9D6D6D6E4E4E4F1F1F1FFFFFF000000000000000000000000000000000000000000000000000000000000B21171F6000000344944415478DAEDC13101000000C2A0F54F6D0D0FA000000000000000000000000000000000000000000000000000000000008E0C757500019AC925960000000049454E44AE426082
  0
ENDSEC
  0
EOF
